Song name
# A B C D E F G H I J K L M N O P Q R S T U V W X Y Z

Lowpen - Forgotten tab

Lowpen, Forgotten.
Tabbed by Matt, lowpen@hotmail.com.
  
Drop D tuning


Opening Riff play twice...then 4x with chords

e:-----------------------------------------------|
B:-----------------------------------------------|
G:-----------------------------------------------|
D:-----------------------------------------------|
A:-----------------------------------------------|
D:0-7-8--0-10-0-5-7--0-7-8--0-3-3-3-2------------|


Chorus 2x

e:-----------------------------------------------------------------------|
B:-----------------------------------------------------------------------|
G:-----------------------------------------------------------------------|
D:-----------------------------------------------------------------------|
A:-3-3-3-3-3---4---0-0-0-0-0-0-0---6-6-6-6-6---5---0-0-0-0-0-0-0---------|
D:-3-3-3-3-3---4---0-0-0-0-0-0-0---6-6-6-6-6---5---0-0-0-0-0-0-0---------|

Bridge 2x

e:----------------------------------------------|
B:----------------------------------------------|
G:----------------------------------------------|
D:----------------------------------------------|
A:-0--0---7-7-7-7-7--8---3-3-3-3-x-x-5-x-x-5----|
D:-0--0---7-7-7-7-7--8---3-3-3-3-x-x-5-x-x-5--- |
 
:: Ultimate Guitar Archive :: 
http://www.ultimate-guitar.com 



Tap to rate this tab
# A B C D E F G H I J K L M N O P Q R S T U V W X Y Z