Song name
# A B C D E F G H I J K L M N O P Q R S T U V W X Y Z

Lowrider - Sun Devil tab

-----------------------------------------------------------------
SUN DEVIL - Lowrider
-----------------------------------------------------------------
Tabbed by:  Anthony Sotelo
Email: lower_fant@hotmail.com
Tuning: C-F-A♯-D♯-G-C
RIFF 1          (guitar 1 + 2)
c|---------------------------------------------------------------|
G|---------------------------------------------------------------|
D|---7-7--5/7\5-------9999999---3-3-3/7-7-----9999999------------|
A|---7-7--5/7\5-8-7---9999999---3-3-3/7-7--7--9999999------------|
F|---5-5--3/5\3-8-7---7777777---1-1-1/5-5--7--7777777------------|
C|--------------6-5---0000000--------------5--0000000------------|

c|---------------------------------------------------------------|
G|---------------------------------------------------------------|
D|---7-7--5/7\5-------9999999--------7\5\3-2---------------------|
A|---7-7--5/7\5-8-7---9999999---8-8--7\5\3-2----2222222----------|
F|---5-5--3/5\3-8-7---7777777---8-8--5\3\1-0----2222222----------|
C|--------------6-5---0000000---6-6-------------0000000----------|


http://www.myspace.com/lowridertheband

RIFF 2  (guitar 1 + 2)
c|---------------------------------------------------------------|
G|---------------------------------------------------------------|
D|---2-----------5-----------7-7777------------------------------|
A|---2--2222222--5--2222222--7-7777-88-7--2222222----------------|
F|---1--2222222--3--2222222--5-5555-88-7--2222222----------------|
C|------0000000-----0000000---------66-5--0000000----------------| x4

(Guitar 1 repeat riff 1)

Guitar 2 (repeat during outro)
c|---------------------------------------------------------------|
G|----10-10--8h10-8------12121212121212--------------------------|
D|-----------------10-9------------------------------------------|
A|---------------------------------------------------------------|
F|---------------------------------------------------------------|
C|---------------------------------------------------------------|

c|---------------------------------------------------------------|
G|---------------------------------------------------------------|
D|---------------------------------------------------------------|
A|-----12-12-12/15-1515--14141414141414--------------------------|
F|-----13-13-13/17-1717------------------------------------------|
C|---------------------------------------------------------------|

c|---------------------------------------------------------------|
G|--10-10-8h10-8------12121212121212-----------------------------|
D|--------------10-9---------------------------------------------|
A|-----------------------------------12-12-15xx15xx15xx1616xx16--|
F|-----------------------------------13-13-----------------------|
C|---------------------------------------------------------------|
 
                       | \  slide down          | h  hammer-on
                       | p  pull-off            | x  Mute note
                       | /  slide up
Tap to rate this tab
 
# A B C D E F G H I J K L M N O P Q R S T U V W X Y Z