Song name
# A B C D E F G H I J K L M N O P Q R S T U V W X Y Z

Lrb - Cholo Bodla Jai tab

                                  2 Times
E--------------------1--------3--------|
B--1--------3-----------0--------1-----|
G-----0--------0-----------0--------0--|
D--------2--------2--------------------|
A--------------------------------------|
E--------------------------------------|


C                 C7M
Sei tumi kano ato ochana hola
C                   G
Sei ami keno tomake dhukho delam
C                     C7M
Kemon kora ato ochana hola tumi
C                       G
Ki vhaba ato bodla gechi ai ami
  C      E          Am
O Bukari shob kosto du hata soria
      Dm       Dm
Cholo bodla jai
          F
Tumi keno bojho na
Dm           G
Tomake chara ami oshoai
     C         E           Am
Amar shob tuku vhalo basha tomai ghira
     F      Dm              G 
Amar oporad chilo joto tuku tomar kacha
     D#m   A#M        C
Tumi khoma kora dio amai

C                    Em
Koto raat ami keda chi
Am               C
Bukar govira kosto nia
C                      Em
Sunnotai duba gechi mai
Am               C
Amake tumi feria nao.


C                       Em
Jotobar vebachi vhula jabo
Am		   C
Taro veshi mona pora jai
C                        Em
Fela asha sei shob din gulo
Am                  C
Vhula jate ami pari na.


Lead Part:

E--------------------------|-------------------------------|
B--------5--6--6/8--8b-----|--------5--6--8--6--5----------|
G--5--7--------------------|--5--7-----------------7--3/5--|
D-----------------------7--|-------------------------------|
A--------------------------|-------------------------------|
E--------------------------|-------------------------------|

b = Bend
/ = Slide

I think this tab is 99% right but there may be some mistakes in lyrics.
Hope you will understand the tab.
So, enjoy it!
Tap to rate this tab
 
# A B C D E F G H I J K L M N O P Q R S T U V W X Y Z