Song name
# A B C D E F G H I J K L M N O P Q R S T U V W X Y Z

Lrb - Mon Chile Mon Pabe tab

intro 1
E----------------------|
B----------------------|
G----------------------|
D----------------------|
A-2-2-2-2--2-2-2-2-----|
E-0-0-3-0--0-3-0-3-----|  X 3times

then
intro 2
E---------------------|
B---------------------|
G---------------------|
D---------------------|
A--2-2-2--------0-----|
E---------5-3-2-2-----|  repeat ..


E5-------------------------------intro1---
mon chile mon pabe deho chile deho
E5------------------------------full intro ---
sobe hobe agochore janbena keho

E5-------------------
vitore te thakle kalo
E5------------------
upore jol jotoi dhalo
G5-------------------
hazar loke bolbe valo
A5------------------C4--B5--
sob shadhonai britha holo ...

repeat this chords

thats all ..

plz rate it ..

mail me rijan420@yahoo.com
Tap to rate this tab
 
# A B C D E F G H I J K L M N O P Q R S T U V W X Y Z