Luan Santana - Sinais tab

(capo  3ª fret)

(solo intro)

E|-8-----3--------------------------------------------|
B|---3-----3---6-----5-----3---5----------------------|
G|-----5-----5---5-5---5-5---5---5--------------------|    (3x)
D|----------------------------------------------------|
A|----------------------------------------------------|
E|----------------------------------------------------|

E|-8-----3------3--3----------------------------------|
B|---3-----3----6--6----------------------------------|
G|-----5-----5--5--5----------------------------------|
D|----------------------------------------------------|
A|----------------------------------------------------|
E|----------------------------------------------------|


E|-8-8-8--3-3-3--3-3-3--3-3-3--3-3--3-3---------------|
B|-3-3-3--3-3-3--6-6-6--5-5-5--3-3--5-5---------------|
G|-5-5-5--5-5-5--5-5-5--5-5-5--5-5--5-5---------------|     (3x)
D|----------------------------------------------------|
A|----------------------------------------------------|
E|----------------------------------------------------|

E|-8-8-8--3-3-3--3-3----------------------------------|
B|-3-3-3--3-3-3--6-6----------------------------------|
G|-5-5-5--5-5-5--5-5----------------------------------|
D|----------------------------------------------------|
A|----------------------------------------------------|
E|----------------------------------------------------|

A9                       F#m7(11)
  Vi seu sorriso em meu sonho
D9                      E
  Segui seu rastro na areia do deserto
A9                       F#m7(11)
  Eu escutei sua voz ao vento
D9                       E
  Senti seu cheiro cada vez de mim mais perto

F#m7(11)                E
  Virei um louco meio obsecado
     D9
Pra te encontrar em algum lugar do mundo
F#m7(11)                 E
  E mesmo sem nunca ter te tocado
    D9      Bm           E
Me pertencia bem lá no fundo

(pré-chorus)
   D9                                 F#m7(11)
Sinais, me mostraram o caminho até você
                             D9
Vagalumes guiam-me sem perceber
                Bm       E
E no fim da estrada uma luz parece ser você

(chorus)
   A9          E       F#m7(11)         D9
Sinais, me ajudaram a perceber o meu caminho é você
D9/C#  Bm                                           E   D9   E
E ninguém no mundo vai fazer eu me sentir denovo assim

   A9             E             F#m7(11)            D9
Sinais, vindos de um lugar tão longe às vezes se encondem
 D9/C#  Bm                                          E
No   farol em uma ilha, numa noite tão vazia eu beijei você
        A9
Até o amanhecer...

Tap to rate this tab
 
# A B C D E F G H I J K L M N O P Q R S T U V W X Y Z