Song name
# A B C D E F G H I J K L M N O P Q R S T U V W X Y Z

Luan Santana - As Lembranas Vo Na Mala chords

Highlighted       Show chord diagrams
Intro 3x:
       C#m                     A   E              B
E|------------------------------------------12--11~-11h12p11---------|
B|---------------------------------------12------------------12------|
G|-9---------9----9----9---------------9------------------------11~--|
D|-11-----13---13---13---13----------9-------------------------------|
A|-11-----------------------12---------------------------------------|
E|-9----------------------------12-----------------------------------|

Riff 1:
E|-11h12p11---------|
B|----------12------|
G|-------------11~--|
D|------------------|
A|------------------|
E|------------------|

Riff 2:
E|-11h12-11---------|
B|----------12------|
G|-------------11~--|
D|------------------|
A|------------------|
E|------------------|


C#m         A    E                   B
Independentemente do que me disser agora
C#m            A             E           B
Queria deixar claro algumas coisas pra você
C#m         A    E                      B
Independentemente se deu certo nossa história,
C#m             A               E               B
Não quero que fique comigo por dó de me fazer sofrer

Interlude:
C#m            B       A                      C#m
Orgulhoso, eu não me ajoelhei pra ter seu coração,
C#m             B        A                      B
Imperfeito sou sim, mas dei o meu melhor até o fim.

Chorus 2x:
 C#m                A                 E
Sua consciência não vai te deixar dormir
                             B
Pois ninguém mais faz palhaçada pra te ver sorrir
 C#m                     A                E
Ninguém vai te abraçar pra ver o sol se pôr
                          B
Ninguém vai escrever no muro uma história de amor.

C#m            A
Mas se mesmo assim
               E
Quiser me deixar
                      B
As lembranças vão na mala pra te atormentar.

      C#m                     A   E              B
E|------------------------------------------12--11~-11h12p11---------|
B|---------------------------------------12------------------12------|
G|-9---------9----9----9---------------9------------------------11~--|
D|-11-----13---13---13---13----------9-------------------------------|
A|-11-----------------------12---------------------------------------|
E|-9----------------------------12-----------------------------------|


Interlude:
C#m            B       A                      C#m
Orgulhoso, eu não me ajoelhei pra ter seu coração,
C#m             B        A                      B
Imperfeito sou sim, mas dei o meu melhor até o fim.

Chorus 2x:
 C#m                A                 E
Sua consciência não vai te deixar dormir
                             B
Pois ninguém mais faz palhaçada pra te ver sorrir
 C#m                     A                E
Ninguém vai te abraçar pra ver o sol se pôr
                          B
Ninguém vai escrever no muro uma história de amor.

C#m            A
Mas se mesmo assim
               E
Quiser me deixar
                      B                         C#m   A
As lembranças vão na mala pra te atormentar.

Chorus 2x:
 C#m                A                 E
Sua consciência não vai te deixar dormir
                             B
Pois ninguém mais faz palhaçada pra te ver sorrir
 C#m                     A                E
Ninguém vai te abraçar pra ver o sol se pôr
                          B
Ninguém vai escrever no muro uma história de amor.

C#m            A
Mas se mesmo assim
               E
Quiser me deixar
                      B
As lembranças vão na mala pra te atormentar.

      C#m                     A
E|--------------------------------|
B|--------------------------------|
G|-9---------9----9----9----------|
D|-11-----13---13---13---13-------|
A|-11-----------------------12----|
E|-9------------------------------|
Tap to rate this tab
# A B C D E F G H I J K L M N O P Q R S T U V W X Y Z