Song name
# A B C D E F G H I J K L M N O P Q R S T U V W X Y Z

Lube - Moy Admiral tab

A very popular song by the Russian band Lube. If anyones able to figure out the 
chords/riffs, please let me know so I can add them in.

Intro
E-----------------------|
B-----------------------|
G-----------------------|
D--------0-1-3-1-0------|
A--3-3-3-----------3-1-3|
E-----------------------|

Riffs (TBA)

Outro (Underneath Lyrics)
E-------------------------|
B-------------------------|
G-------------------------|
D--------0-1-3-1-0--------|
A--3-3-3-----------3-1-3-3|
E-------------------------|
Tap to rate this tab
# A B C D E F G H I J K L M N O P Q R S T U V W X Y Z