Guitaretab - guitar tabs
Song name
# A B C D E F G H I J K L M N O P Q R S T U V W X Y Z

Luca Turilli - Where Heroes Lie tab

#----------------------------------PLEASE NOTE---------------------------------#
#This file is the author's own work and represents their interpretation of the #
#song. You may only use this file for private study, scholarship, or research. #
#------------------------------------------------------------------------------#

WHERE HEROES LIE
As recorded by Luca Turilli
(From the 1999 Album KING OF THE NORDIC TWILIGHT)

Transcribed by Sigbjorn01@gmx.net based on tab by Niclas Buss
	

Words and Music by Luca Turilli

Gtr I (E A D G B E) - 'Luca Turilli distortion guitar 1'
Gtr II (E A D G B E) - 'Luca Turilli distortion guitar 2'
Gtr III (E A D G B E) - 'Sascha Paeth intro and bridge solos'

   Intro
    Q=180                    1.                       2.
    A#5                                   F#5  E#5     A#5         G#5
   4/4
    Gtr I
                                                ~~                 ~
    |-3-| |-3-| |-3-| |-3-|   |-3-| |-3-|              |-3-| |-3-|
    E E E E E E E E E E E E   E E E E E E  Q    Q      E E E E E E H
||--------------------------|-----------------------||------------------|
||o-------------------------|----------------------o||------------------|
||--------------------------|-----------------------||------------------|
||--------------------------|-----------------------||------------------|
||o-------6-8-9-------6-8-9-|-------6-8-9-[9]---8--o||-------6-8-9------|
||--6-8-9-------6-8-9-------|-6-8-9-----------------||-6-8-9-------4----|
|
|   Gtr II
|                                                                  ~
|   q     Q     q     Q       q     Q      Q    Q      q     Q     H
||--------------------------|-----------------------||------------------|
||o-------------------------|----------------------o||------------------|
||--------------------------|-----------------------||------------------|
||--------------------------|-------------11---10---||------------------|
||o-8-----------8-----------|-8------------9----8--o||-8-----------6----|
||--6-----------6-----------|-6---------------------||-6-----------4----|


    A#5
    |-3-| |-3-| |-3-| |-3-|
    E E E E E E E E E E E E
||--------------------------|
||o-------------------------|
||--------------------------|
||--------------------------|
||o-------6-8-9-------6-8-9-|
||--6-8-9-------6-8-9-------|
|
|   q     Q     q     Q
||--------------------------|
||o-------------------------|
||--------------------------|
||--------------------------|
||o-8-----------8-----------|
||--6-----------6-----------|
|
|   Gtr III
|   W
||--------------------------|
||o-------------------------|
||--------------------------|
||--------------------------|
||o-------------------------|
||--------------------------|


 1.                       2.
              F#5  E#5     G#5           A#5
                    ~~                   ~
  |-3-| |-3-|                      |-3-|
  E E E E E E  Q    Q      S S S S E E E Q   Q
|-----------------------||--------------------------|
|----------------------o||--------------------------|
|-----------------------||--------------------------|
|-----------------------||--------------------------|
|-------6-8-9-[9]---8--o||---8-6-4------------------|
|-6-8-9-----------------||-4-------8-6-4-6----------|
|
| q     Q      Q    Q      Q       Q     H
|-----------------------||--------------------------|
|----------------------o||--------------------------|
|-----------------------||--------------------------|
|-------------11---10---||--------------------------|
|-8------------9----8--o||-6-------------8----------|
|-6---------------------||-4-------------6----------|
|
|                                            ~~~~~
| W                        H             Q   Q
|-----------------------||------------------16b18---|
|----------------------o||--------------------------|
|-----------------------||--------------------------|
|-----------------------||--------------------------|
|----------------------o||--------------------------|
|-----------------------||--------------------------|


  A#5                                                  F#5         E#5
                                                                    ~~~~~~
    |-3--| |-3-|   |-3--| |-3-|     |-3--| |----3----|
    E  E E E E E   E  E E E E E     E  E E E E       E  Q           Q
|-------------------------------|------------------------------------------------|
|-------------------------------|------------------------------------------------|
|-------------------------------|------------------------------------------------|
|-------------------------------|----------------------11----------10------------|
|-------------------------------|-----------------------9-----------8------------|
|---6--6-6-6-6-6---6--6-6-6-6-6-|---6--6-6-6-6-------6---------------------------|
|
|   W                               W
|-------------------------------|------------------------------------------------|
|-------------------------------|------------------------------------------------|
|-------------------------------|------------------------------------------------|
|-------------------------------|------------------------------------------------|
|-------------------------------|------------------------------------------------|
|-------------------------------|------------------------------------------------|
|
|   ~~~~~~~~~~~~~~~~~~
|                                                       |---3----|  |----3-----|
|  +H             +H               +Q.          +E      E     E  E  E     +E   E
|-(16)-----------(16)-----------|-(16)---------(16)r---16b18r16p13---------------|
|-------------------------------|----------------------------------16b18r(16)p14-|
|-------------------------------|------------------------------------------------|
|-------------------------------|------------------------------------------------|
|-------------------------------|------------------------------------------------|
|-------------------------------|------------------------------------------------|


  A#5
   |---3---| |-3-| |-3-|   |--3--|
   E     E E E E E E E E   E  E  E
|-----------------------------------|
|-----------------------------------|
|-----------------------------------|
|-----------------------------------|
|-----------------------------------|
|--6-----6-6-6-6-6-6-6-6---6--6--6--|
|
|  W
|-----------------------------------|
|-----------------------------------|
|-----------------------------------|
|-----------------------------------|
|-----------------------------------|
|-----------------------------------|
|
|                          |--3--|
|  H.                      Q     E
|-------------------------18--------|
|-16b18==================(16)---16r-|
|-----------------------------------|
|-----------------------------------|
|-----------------------------------|
|-----------------------------------|


                    G#5                 A#5
                     ~~
   |--3--|  |--3--|                      |--3--|  |--3--|  |--3--|      |--3--|
   E  E  E  E  E  E  H                   E  E  E  E  E  E  E  E  E      E  E  E
|-------------------------------------|-----------------------------------------|
|-------------------------------------|-----------------------------------------|
|-------------------------------------|-----------------------------------------|
|-------------------------------------|-----------------------------------------|
|--------------------6----------------|-----------------------------------------|
|--6--6--6--6--6--6--4----------------|--6--6--6--6--6--6--6--6--6------6--6--6-|
|
|  |--3--|  |--3--|  |--3--|  |--3--|    |--3--|  |--3--|  |--3--|      |--3--|
|  E  E  E  E  E  E  E  E  E  E  E  E    E  E  E  E  E  E  E  E  E     +Q     E
|-------------------------------------|-------------13----18----20b21r(20)---18-|
|-18p16-18-16p14-16-14-13-14----13-14-|-------14--------------------------------|
|----------------------------15-------|-13-15----15----15----15-----------------|
|-------------------------------------|-----------------------------------------|
|-------------------------------------|-----------------------------------------|
|-------------------------------------|-----------------------------------------|


                           F#5 E#5
                                ~~
   |---3----|   |---3----|
   E      E E   E      E E  Q   Q
|---------------------------------------|
|---------------------------------------|
|---------------------------------------|
|--------------------------11--10-------|
|---------------------------9---8-------|
|--6------6-6---6------6-6--------------|
|
|                               |--3--|
|  Q           +Q           Q   E  E  E
|---------------------------------------|
|-16b17.5-----(16)pb18r====16--14----16-|
|---------------------------------15----|
|---------------------------------------|
|---------------------------------------|
|---------------------------------------|


  A#5                                       G#5               A#5
   |--3---| |---3----|   |--3--|  |--3--|
   E    E E E E      E   E  E  E  E  E  E    Q        Q        H
|-----------------------------------------|-------------------------------||
|-----------------------------------------|-------------------------------||
|-----------------------------------------|-------------------------------||
|-----------------------------------------|-------------------------------||
|-----------------------------------------|--6-----------------8----------||
|--6----6-6-6-6------6---6--6--6--6--6--6-|--4-----------------6----------||
|
|                                                              ~~~
|                        |--3--|  |--3--|    |--3--|  |--3--|
|  Q.            +E     +Q     E  E  E  E    E  E  E  E  E  E  Q.    +E
|-----------------------------------------|-------------------------------||
|-14b16---------(14)---(14)---------------|-------------------------------||
|-----------------------------18p15-------|-------------------------------||
|-----------------------------------18p15-|-15-13-11h13p11----------------||
|-----------------------------------------|----------------11h13----(13)\-||
|-----------------------------------------|-------------------------------||


   Verse
    $
    A#5
       PM--------------|      PM--------------|
       |-3-| |-3-| |-3-|      |-3-| |-3-| |-3-|
    Q  E E E E E E E E E   Q  E E E E E E E E E
||-----------------------|----------------------|
||o----------------------|----------------------|
||-----------------------|----------------------|
||-----------------------|----------------------|
||o-8--------------------|-8--------------------|
||--6--6-6-6-6-6-6-6-6-6-|-6--6-6-6-6-6-6-6-6-6-|
|
|   W                      W
||-----------------------|----------------------|
||o----------------------|----------------------|
||-----------------------|----------------------|
||-----------------------|----------------------|
||o----------------------|----------------------|
||-----------------------|----------------------|


 1.
                            C#5            G#5
      PM---------------|
      |-3-| |-3-| |--3--|
  Q   E E E E E E E  E  E    H              H
|-------------------------|-----------------------||
|-------------------------|----------------------o||
|-------------------------|-----------------------||
|-------------------------|--6--------------------||
|-8-----------------------|--4--------------6----o||
|-6---6-6-6-6-6-6-6--6--6-|-----------------4-----||
|
|                                           ~~
|                 |--3--|         |--3---|
| H.              E  E  E    Q   +E   E  E  H
|-------------------------|-----------------------||
|-------------------11h13-|-14--(14)p13p11-------o||
|-------------------------|----------------13-----||
|-------------------------|-----------------------||
|-------------------------|----------------------o||
|-------------------------|-----------------------||


  2.
  A#5                       C#5            G#5
      PM---------------|
      |-3-| |-3-| |--3--|
  Q   E E E E E E E  E  E    H              H
|-------------------------|-----------------------------|
|-------------------------|-----------------------------|
|-------------------------|-----------------------------|
|-------------------------|--6--------------------------|
|-8-----------------------|--4--------------6-----------|
|-6---6-6-6-6-6-6-6--6--6-|-----------------4-----------|
|
|                                           ~~~~~~~~~~~~
|                 |--3--|         |--3---|
| H.              E  E  E    Q   +E   E  E  Q.      +E
|-------------------------|----------------13b14r==(13)-|
|-------------------11h13-|-14--(14)p13p11--------------|
|-------------------------|-----------------------------|
|-------------------------|-----------------------------|
|-------------------------|-----------------------------|
|-------------------------|-----------------------------|


    A#5
       PM--------------|      PM--------------|
       |-3-| |-3-| |-3-|      |-3-| |-3-| |-3-|
    Q  E E E E E E E E E   Q  E E E E E E E E E
||-----------------------|----------------------|
||o----------------------|----------------------|
||-----------------------|----------------------|
||-----------------------|----------------------|
||o-8--------------------|-8--------------------|
||--6--6-6-6-6-6-6-6-6-6-|-6--6-6-6-6-6-6-6-6-6-|
|
|   W                      W
||-----------------------|----------------------|
||o----------------------|----------------------|
||-----------------------|----------------------|
||-----------------------|----------------------|
||o----------------------|----------------------|
||-----------------------|----------------------|


                            C#5            G#5
      PM---------------|
      |-3-| |-3-| |--3--|
  Q   E E E E E E E  E  E    H              H
|-------------------------|-----------------------||
|-------------------------|----------------------o||
|-------------------------|-----------------------||
|-------------------------|--6--------------------||
|-8-----------------------|--4--------------6----o||
|-6---6-6-6-6-6-6-6--6--6-|-----------------4-----||
|
|                                           ~~
|                 |--3--|         |--3---|
| H.              E  E  E    Q   +E   E  E  H
|-------------------------|-----------------------||
|-------------------11h13-|-14--(14)p13p11-------o||
|-------------------------|----------------13-----||
|-------------------------|-----------------------||
|-------------------------|----------------------o||
|-------------------------|-----------------------||


 Chorus
  $$             To Coda
  C#5                     G#5             G#         E5
  W          +W           W          +Q   Q  Q  Q    W          +W
|----------|------------|----------|---------------|----------|--------|
|----------|------------|----------|---------------|----------|--------|
|----------|------------|----------|------3--------|----------|--------|
|-6--------|-(6)--------|----------|---------6-----|----------|--------|
|-4--------|-(4)--------|-6--------|-(6)--------6--|-2--------|-(2)----|
|----------|------------|-4--------|-(4)-----------|-0--------|-(0)----|


  B                            F#5
  Q  Q  H      +Q   Q  Q  Q    W          +W
|-2----------|------2--------|----------|--------|
|----4-------|---------4-----|----------|--------|
|------------|------------4--|----------|--------|
|-------4----|-(4)-----------|----------|--------|
|-------2----|-(2)-----------|-4--------|-(4)----|
|------------|---------------|-2--------|-(2)----|


  C#5                     D                     D#5
  W          +W           W          H    H      W
|----------|------------|----------|-----------|------|
|----------|------------|----------|-----------|------|
|----------|------------|----------|-----------|------|
|-6--------|-(6)--------|-6--------|-6----6----|-8----|
|-4--------|-(4)--------|-5--------|-5----5----|-6----|
|----------|------------|----------|-----------|------|


                                                      To Dbl. Coda
  C#5        B5         A#   G+     G#5
                                                   PM  PM--|
                                                |-3--|
  W          W          H    H      W          +E  E E S S E Q  Q
|----------|----------|-----------|----------|----------------------||
|----------|----------|-----------|----------|----------------------||
|----------|----------|-----------|----------|----------------------||
|-6--------|-4--------|-0---------|----------|-------6-------6------||
|-4--------|-2--------|-1----6----|-6--------|-(6)---6-------6------||
|----------|----------|------3----|-4--------|-(4)-4-4-4-4-4-4------||


   Bridge
                             1.                      2.
    G#5                                   E5   D#5    G#5         F#5
                                               ~                  ~
    |-3-| |-3-| |-3-| |-3-|   |-3-| |-3-|             |-3-| |-3-|
    E E E E E E E E E E E E   E E E E E E  Q   Q      E E E E E E H
||--------------------------|----------------------||------------------|
||o-------------------------|---------------------o||------------------|
||--------------------------|----------------------||------------------|
||--------------------------|----------------------||------------------|
||o-------4-6-7-------4-6-7-|-------4-6-7-[7]--6--o||-------4-6-7------|
||--4-6-7-------4-6-7-------|-4-6-7----------------||-4-6-7-------2----|
|
|   Gtr II
|                                                                 ~
|   q     Q     q     Q       q     Q      Q   Q      q     Q     H
||--------------------------|----------------------||------------------|
||o-------------------------|---------------------o||------------------|
||--------------------------|----------------------||------------------|
||--------------------------|--------------9---8---||------------------|
||o-6-----------6-----------|-6------------7---6--o||-6-----------4----|
||--4-----------4-----------|-4--------------------||-4-----------2----|


                             1.                      2.
    G#5                                   E5   D#5    F#5           G#5
                                               ~                    ~
    |-3-| |-3-| |-3-| |-3-|   |-3-| |-3-|                     |-3-|
    E E E E E E E E E E E E   E E E E E E  Q   Q      S S S S E E E H
||--------------------------|----------------------||------------------------|
||o-------------------------|---------------------o||------------------------|
||--------------------------|----------------------||------------------------|
||--------------------------|----------------------||------------------------|
||o-------4-6-7-------4-6-7-|-------4-6-7-[7]--6--o||---6-4-2----------------|
||--4-6-7-------4-6-7-------|-4-6-7----------------||-2-------6-4-2-4--------|
|
|   Gtr II                                                             Gtr III
|                                                                   ~~~~~~~
|   q     Q     q     Q       q     Q      Q   Q      q       Q     Q   Q
||--------------------------|----------------------||------------------14----|
||o-------------------------|---------------------o||------------------------|
||--------------------------|----------------------||------------------------|
||--------------------------|--------------9---8---||------------------------|
||o-6-----------6-----------|-6------------7---6--o||-4-------------6--(6)---|
||--4-----------4-----------|-4--------------------||-2-------------4--(4)---|


  A#5
   |---3---| |-3-| |-3-|   |-3--|
   E     E E E E E E E E   E  E E
|---------------------------------|
|---------------------------------|
|---------------------------------|
|---------------------------------|
|---------------------------------|
|--6-----6-6-6-6-6-6-6-6---6--6-6-|
|
|  H.                     +Q
|---------------------------------|
|-16b18==================(16)-----|
|---------------------------------|
|---------------------------------|
|---------------------------------|
|---------------------------------|

[ Tab from: http://www.guitaretab.com/l/luca-turilli/40555.html ]
                       F#5           E#5      A#5
                                      ~~~~~
    |-3--| |----3----|                          |-3--| |-3-| |-3-| |-3-|
    E  E E E E       E  Q             Q         E  E E E E E E E E E E E
|-------------------------------------------|-----------------------------|
|-------------------------------------------|-----------------------------|
|-------------------------------------------|-----------------------------|
|----------------------11------------10-----|-----------------------------|
|-----------------------9-------------8-----|-----------------------------|
|---6--6-6-6-6-------6----------------------|---6--6-6-6-6-6-6-6-6-6-6-6--|
|
|                       |----3-----|
|  +Q.          +E      E     +E   E  Q        +W
|------------------------------------17b18--|-(17)------------------------|
|-(16)---------(16)r---16b18r(16)-14--------|-----------------------------|
|-------------------------------------------|-----------------------------|
|-------------------------------------------|-----------------------------|
|-------------------------------------------|-----------------------------|
|-------------------------------------------|-----------------------------|


                     G#5                 A#5
                      ~~
    |-3--|   |--3--|                      |---3---| |-3-|   |-3--|   |----3-----|
    E  E E   E  E  E  H                   E     E E E E E   E  E E   E    E     E
|--------------------------------------|-------------------------------------------|
|--------------------------------------|-------------------------------------------|
|--------------------------------------|-------------------------------------------|
|--------------------------------------|-------------------------------------------|
|---------------------6----------------|-------------------------------------------|
|---6--6-6---6--6--6--4----------------|--6-----6-6-6-6-6---6--6-6---6----6-----6--|
|
|            |--3--|  |--3--|  |--3--|                               |----3-----|
|  +Q       +Q     E  E  E  E  E  E  E    H                +Q       +E   +E    +E
|-(17)-----(17)---16----16p13h16-------|-------------------------------------------|
|--------------------18----------16-17-|-17b18============(17)-----(17)-(17)r-(17)p|
|--------------------------------------|-------------------------------------------|
|--------------------------------------|-------------------------------------------|
|--------------------------------------|-------------------------------------------|
|--------------------------------------|-------------------------------------------|


                    F#5      E#5
                              ~~~~~~
   |--3--|  |--3--|
   E  E  E  E  E  E  Q        Q
|-----------------------------------------|
|-----------------------------------------|
|-----------------------------------------|
|-------------------11-------10-----------|
|--------------------9--------8-----------|
|--6--6--6--6--6--6-----------------------|
|
|  |--3--|  |--3--|  |--3--|  |---3----|
|  E  E  E  E  E  E  E  E  E  E     E  E
|-----------------------------------------|
|-16p14-16-14-16-14----14-16-14b16r14-----|
|-------------------15----------------15--|
|-----------------------------------------|
|-----------------------------------------|
|-----------------------------------------|


                                                     D.S. al Coda
  A#5                                       G#5               A#5
   |---3----|   |--3--|  |--3--|  |--3--|
   E    E   E   E  E  E  E  E  E  E  E  E    Q        Q        H
|-----------------------------------------|-------------------------||
|-----------------------------------------|-------------------------||
|-----------------------------------------|-------------------------||
|-----------------------------------------|-------------------------||
|-----------------------------------------|--6-----------------8----||
|--6----6---6---6--6--6--6--6--6--6--6--6-|--4-----------------6----||
|
|                                                              ~~
|  |---3----|   |--3--|  |--3--|  |--3--|    |--3--|  |--3--|
|  Q       +E   E  E  E  E  E  E  E  E  E    E  E  E  E  E  E  H
|-17b18r==(17)-16-13h16p13----13----------|-------------------------||
|--------------------------16----16p14----|-16p14-------------------||
|--------------------------------------15-|-------15p13----13-15----||
|-----------------------------------------|-------------15----------||
|-----------------------------------------|-------------------------||
|-----------------------------------------|-------------------------||


 Chorus 2 continued
  &
  G#5             G#               E5
  W          +Q    Q    Q   +Q     W          +W
|----------|---------------------|----------|--------|
|----------|---------------------|----------|--------|
|----------|-------3-------------|----------|--------|
|----------|------------6--------|----------|--------|
|-6--------|-(6)--(6)--(6)--(6)--|-2--------|-(2)----|
|-4--------|-(4)--(4)--(4)--(4)--|-0--------|-(0)----|


  B                            F#5
  Q  Q  H      +Q   Q  Q  Q    W          +W
|-2----------|------2--------|----------|--------|
|----4-------|---------4-----|----------|--------|
|------------|------------4--|----------|--------|
|-------4----|-(4)-----------|----------|--------|
|-------2----|-(2)-----------|-4--------|-(4)----|
|------------|---------------|-2--------|-(2)----|


  C#5                     D                     D#5
  W          +W           W          H    H      W
|----------|------------|----------|-----------|------|
|----------|------------|----------|-----------|------|
|----------|------------|----------|-----------|------|
|-6--------|-(6)--------|-6--------|-6----6----|-8----|
|-4--------|-(4)--------|-5--------|-5----5----|-6----|
|----------|------------|----------|-----------|------|


  C#5        B5         A#   G+     G#5
  W          W          H    H      W          +W
|----------|----------|-----------|----------|--------||
|----------|----------|-----------|----------|--------||
|----------|----------|-----------|----------|--------||
|-6--------|-4--------|-0---------|----------|--------||
|-4--------|-2--------|-1----6----|-6--------|-(6)----||
|----------|----------|------3----|-4--------|-(4)----||


 Orchestral BridgLuca Turilli Solo
                  C#
  Wx16             S  S  S  S  S  S  S  S  S  S  S  S  S  S  S  S
|-------------||--16p13----------13h18p13h16p13----------13h14h16p|
|-------------||o-------14----14----------------14----14----------|
|-------------||-----------13----------------------13-------------|
|-------------||--------------------------------------------------|
|-------------||o-------------------------------------------------|
|-------------||--------------------------------------------------|
|
| Gtr II
|                  PM----------------------------------------------
| Wx16             E     E     E     E     E     E     E     E
|-------------||--------------------------------------------------|
|-------------||o-------------------------------------------------|
|-------------||--------------------------------------------------|
|-------------||--------------------------------------------------|
|-------------||o--4-----8-----6-----8-----4-----8-----6-----8----|
|-------------||--------------------------------------------------|


   S  S  S  S  E  E  E  E  E  E
|-13----------13h16-18-16-14-----|
|----14----14----------------18--|
|-------13-----------------------|
|--------------------------------|
|--------------------------------|
|--------------------------------|
|
|----------------------------|
|  E     E     E  E  E  E  E  E
|--------------------------------|
|--------------------------------|
|--------------------------------|
|--------------------4-----------|
|--4-----8-----6--8-----8--6--4--|
|--------------------------------|


  G#
   S  S  S  S  S  S  S  S  S  S  S  S  S  S  S  S
|-14p11----------11h16p11h14p11----------11h13h14p|
|-------13----13----------------13----13----------|
|----------11----------------------11-------------|
|-------------------------------------------------|
|-------------------------------------------------|
|-------------------------------------------------|
|
|  PM----------------------------------------------
|  E     E     E     E     E     E     E     E
|-------------------------------------------------|
|-------------------------------------------------|
|-------------------------------------------------|
|-------------------------------------------------|
|-------------------------------------------------|
|--4-----8-----6-----8-----4-----8-----6-----8----|


   S  S  S  S  E  E  E  E  E  E
|-11----------11h14-16-14-13----|
|----13----13----------------16-|
|-------11----------------------|
|-------------------------------|
|-------------------------------|
|-------------------------------|
|
|----------------------------|
|  E     E     E  E  E  E  E  E
|-------------------------------|
|-------------------------------|
|-------------------------------|
|-------------------------------|
|--------------------4----------|
|--4-----8-----6--8-----8--6--4-|


  D#m
   S  S  S  S  S  S  S  S  S  S  S  S  S  S  S  S
|-18p14----------14h19p14h18p14----------14h16h18p|
|-------16----16----------------16----16----------|
|----------15----------------------15-------------|
|-------------------------------------------------|
|-------------------------------------------------|
|-------------------------------------------------|
|
|  PM----------------------------------------------
|  E     E     E     E     E     E     E     E
|-------------------------------------------------|
|-------------------------------------------------|
|-------------------------------------------------|
|-------------------------------------------------|
|--6-----9-----8-----9-----6-----9-----8-----9----|
|-------------------------------------------------|


   S  S  S  S  E  E  E  E  E  E
|-14----------14h16-19-18-16----|
|----16----16----------------19-|
|-------15----------------------|
|-------------------------------|
|-------------------------------|
|-------------------------------|
|
|----------------------------|
|  E     E     E  E  E  E  E  E
|-------------------------------|
|-------------------------------|
|-------------------------------|
|--------------------6--9--8--6-|
|--6-----9-----8--9-------------|
|-------------------------------|


  A#m
   E  E  E  E  E  E  E  E    E  E  E  E  E  E  E  E
|-------------------------|--------------------------||
|-18-16-14----------14-16-|----------------14-16-18-o||
|----------17-15-17-------|-------13-15-17-----------||
|-------------------------|-15-17--------------------||
|-------------------------|-------------------------o||
|-------------------------|--------------------------||
|
|  PM--------------------------------------------|
|  E  E  E  E  E  E  E  E    E  E  E  E  E  E  E  E
|-------------------------|--------------------------||
|-------------------------|-------------------------o||
|-------------------------|--------------------------||
|-------------------------|--------------------------||
|-------------------------|--------------8--6-------o||
|--6--9--8--9--6--9--8--9-|--6--9--8--9--------9--8--||


  A7
                           T
                                       |-----5-----|
   S  S  S  S  S  S  S  S  S  S  S  S  S  S  S  S  S
|-11----------------11h14h17p14p11----------------11-|
|----13----------13----------------13----------13----|
|-------14----14----------------------14----14-------|
|----------16----------------------------16----------|
|----------------------------------------------------|
|----------------------------------------------------|
|
|  S  S  S  S  S  S  S  S  S  S  S  S  Q
|-13h17p13h17p13h17p13h17p13h17p13h17p13-------------|
|----------------------------------------------------|
|----------------------------------------------------|
|----------------------------------------------------|
|----------------------------------------------------|
|----------------------------------------------------|


  A#m
   S  S  S  S  S  S  S  S  S  S  S  S  S  S  E
|-13----------------13h18p13----------------13-|
|----14----------14----------14----------14----|
|-------15----15----------------15----15-------|
|----------15----------------------15----------|
|----------------------------------------------|
|----------------------------------------------|
|
|  S  S  S  S  S  S  S  S  S  S  S  S  Q
|-13h18p13h18p13h18p13h18p13h18p13h18p13-------|
|----------------------------------------------|
|----------------------------------------------|
|----------------------------------------------|
|----------------------------------------------|
|----------------------------------------------|


   S  S  S  S  S  S  S  S  S  S  S  S  S  S  S  S
|-13----------------13h18p13----------------13-13p|
|----14----------14----------14----------14-------|
|-------15----15----------------15----15----------|
|----------15----------------------15-------------|
|-------------------------------------------------|
|-------------------------------------------------|
|
|  S  S  S  S  S  S  S  S  S  S  S  S  Q
|-13h18p13h18p13h18p13h18p13h18p13h18p13----------|
|-------------------------------------------------|
|-------------------------------------------------|
|-------------------------------------------------|
|-------------------------------------------------|
|-------------------------------------------------|


  A7
                           T
                                       |-----5-----|
   S  S  S  S  S  S  S  S  S  S  S  S  S  S  S  S  S
|-11----------------11h14h17p14p11----------------11--|
|----13----------13----------------13----------13-----|
|-------14----14----------------------14----14--------|
|----------16----------------------------16-----------|
|-----------------------------------------------------|
|-----------------------------------------------------|
|
|  S  S  S  S  S  S  S  S  S  S  S  S  Q
|-13h17p13h17p13h17p13h17p13h17p13h17p13--------------|
|-----------------------------------------------------|
|-----------------------------------------------------|
|-----------------------------------------------------|
|-----------------------------------------------------|
|-----------------------------------------------------|


                                            Verse 3
                                             A#m               C#
                      ~~~            ~~~     PM------------------------------|
   Q.    Q.    Q      H      E   E   Q       E E E E E E E E   E E E E E E E E
|-13----15----16---|-17-----16--14--13---||------------------|-----------------|
|------------------|---------------------||o-----------------|-----------------|
|------------------|---------------------||------------------|-----------------|
|------------------|---------------------||------------------|-----------------|
|------------------|---------------------||o-----4-4---------|-4-4-----4-4-----|
|------------------|---------------------||--6-6-----6-6-4-4-|-----4-4-----4-4-|
|
|  ~~~~~~~~~~~~~~~~~~~~~~
|  Q.    Q.    Q      H      E   E   Q       W                 W
|------------------|---------------------||------------------|-----------------|
|------------------|---------------------||o-----------------|-----------------|
|------------------|---------------------||------------------|-----------------|
|------------------|---------------------||------------------|-----------------|
|-[8]---[6]---[4]--|-[3]----[4]-[3]------||o-----------------|-----------------|
|------------------|----------------[6]--||------------------|-----------------|


                   1.                  2.
  A#m     D#m C#    A#m                 A#m
  PM---------------------------------------------------|
  E E E E E E E E   E E E E E E E E     E E E E E E  E  E
|-----------------|------------------||-------------------|
|-----------------|-----------------o||-------------------|
|-----------------|------------------||-------------------|
|-----------------|------------------||-------------------|
|-----4-4-6-6-3-3-|-----------------o||-------------------|
|-6-6-------------|-6-6-6-6-6-6-6-6--||-6-6-6-6-6-6--6--6-|
|
| W                 W                   H       Q    E  E
|-----------------|------------------||-------------------|
|-----------------|-----------------o||-------------------|
|-----------------|------------------||----------------10-|
|-----------------|------------------||-------------11----|
|-----------------|-----------------o||-------------------|
|-----------------|------------------||-------------------|


                                                        1.
    F#                                  C#               G#5
        PM|    PM|         PM|    PM|       PM|    PM|      PM|    PM|
     Q  E E Q  E E     Q   E E Q  E E    Q  E E Q  E E   Q  E E Q  E E
||-----------------|------------------|----------------|-----------------||
||o----------------|------------------|----------------|----------------o||
||-----------------|------------------|----------------|-----------------||
||-----------------|------------------|--6------6------|-----------------||
||o--4------4------|---4-------4------|--4--4-4-4--4-4-|-6------6-------o||
||---2--2-2-2--2-2-|---2---2-2-2--2-2-|----------------|-4--4-4-4--4-4---||
|
|    W                +W                 W               W
||-----------------|------------------|----------------|-----------------||
||o-11-------------|-(11)-------------|--9-------------|-9--------------o||
||--11-------------|-(11)-------------|-10-------------|-8---------------||
||-----------------|------------------|----------------|-----------------||
||o----------------|------------------|----------------|----------------o||
||-----------------|------------------|----------------|-----------------||


                Chorus 3 ending
  2.
D.S.S. al Dbl. Co&&
  G#5             D#5        C#5        B5         A#   G+
     PM| ~
  Q  E E H        W          W          W          H    H
|-------------||-----------|----------|----------|-----------|
|-------------||-----------|----------|----------|-----------|
|-------------||-----------|----------|----------|-----------|
|-------------||--8--------|-6--------|-4--------|-0---------|
|-6------6----||--6--------|-4--------|-2--------|-1----6----|
|-4--4-4-4----||-----------|----------|----------|------3----|
|
| W               W          W          W          W
|-------------||-----------|----------|----------|-----------|
|-9-----------||-----------|----------|----------|-----------|
|-8-----------||-----------|----------|----------|-----------|
|-------------||-----------|----------|----------|-----------|
|-------------||-----------|----------|----------|-----------|
|-------------||-----------|----------|----------|-----------|


  G#5        A#   G+     G#5        A#   G+
  W          H    H      W          H    H
|----------|-----------|----------|-----------|
|----------|-----------|----------|-----------|
|----------|-----------|----------|-----------|
|----------|-0---------|----------|-0---------|
|-6--------|-1----6----|-6--------|-1----6----|
|-4--------|------3----|-4--------|------3----|


  G#5                         N.C.          G#5
  PM|    PM   PM        PM  PM
                              |-3-| |-3-|
  S S Q  E Q  E E   +E  E E E E E E E E E   Q   H.
|-----------------|-----------------------|-----------*|
|-----------------|-----------------------|-----------*|
|-----------------|-----------------------|-----------*|
|-----------------|-----------------------|-----------*|
|-----6----6----6-|-(6)---6---------4-6-7-|-6\--------*|
|-4-4-4--4-4--4-4-|-(4)-4-4-4-4-6-7-------|-4\--------*|



Duration Legend
---------------
W - whole; H - half; Q - quarter; E - 8th; S - 16th; T - 32nd; X - 64th; a - acciaccatura
+ - note tied to previous; . - note dotted; .. - note double dotted
Uncapitalized letters represent notes that are staccato (1/2 duration)
Irregular groupings are notated above the duration line
Duration letters will always appear directly above the note/fret number it represents the
duration for.  Duration letters with no fret number below them represent rests.  Multi-
bar rests are notated in the form Wxn, where n is the number of bars to rest for.  Low
melody durations appear below the staff

Tablature Legend
----------------
 h   - hammer-on
 p   - pull-off
 b   - bend
 pb  - pre-bend
 r   - bend release (if no number after the r, then release immediately)
 /\  - slide into or out of (from/to "nowhere")
 s   - legato slide
 S   - shift slide
 - natural harmonic
[n]  - artificial harmonic
n(n) - tapped harmonic
 ~   - vibrato
 tr  - trill
 T   - tap
 TP  - trem. picking
 PM  - palm muting
\n/  - tremolo bar dip; n = amount to dip
 \n  - tremolo bar down
 n/  - tremolo bar up
/n\  - tremolo bar inverted dip
 =   - hold bend; also acts as connecting device for hammers/pulls
 <> - volume swell (louder/softer)
 x   - on rhythm slash represents muted slash
 o   - on rhythm slash represents single note slash

Misc Legend
-----------
 |  - bar
||  - double bar
||o - repeat start
o|| - repeat end
*|  - double bar (ending)
 :  - bar (freetime)
 $  - Segno
 &  - Coda
Tempo markers -  = BPM(8/16=s8/s16), where s8 = swing 8ths, s16 = swing 16ths

Related for Where Heroes Lie tab