Song name
# A B C D E F G H I J K L M N O P Q R S T U V W X Y Z

Luca Turilli - Legend Of Steel tab

Keyboard intro, and then

|---------------------------------------------------------------|
|-10-101010-10-13-11-10-----------------10----------------------|
|-----------------------12-12-121212-12----12-10-9--------------|
|--------------------------------------------------12-121212-12-|
|---------------------------------------------------------------|
|---------------------------------------------------------------|

               
|--------------------------------------|-------------------------|
|--------------------------------------|-------------------------|
|--------------------------------------|-------------------------|
|-12-14-15-12--14-17-15-17-14-17-12-17-|-15-19-17-19-15-19-14-19-|
|--------------------------------------|-------------------------|
|--------------------------------------|-------------------------|

|---------------------------------------------------------------|
|-10-101010-10-13-11-10-----------------10----------------------|
|-----------------------12-12-121212-12----12-10-9--------------|
|--------------------------------------------------12-121212-12-|
|---------------------------------------------------------------|
|---------------------------------------------------------------|

|--------------------------------------|
|--------------------------------------|
|--------------------------------------|
|-12-14-15-12--15-19-17-19-15-19-14-19-|
|--------------------------------------|
|--------------------------------------|
Two Times

Verse 1:
         Sky became darker
|--------------------------------------|
|--------------------------------------|
|--------------------------------------|
|-7-7-7-7-7-7-7-7-7-7-7-7-7-7-7-7-7-7-7|
|-5-5-5-5-5-5-5-5-5-4-4-4-4-4-4-4-4-4-4|
|--------------------------------------|

      when the news there came

|---------------------------------|
|---------------------------------|
|---------------------------------|
|---------------------------------|
|5-5-5-5-5-5-5-5--3-3-3-3-2-2-2-2-|
|3-3-3-3-3-3-3-3--1-1-1-1-0-0-0-0-|

4 times, then

It's time to call...        The whisper of the shadows
|------------------------------------------------------------|
|------------------------------------------------------------|
|-----------5-----7-----3--------------------5-5-5-5-5-5-5-5-|
|-----3-----5-----7-----3---3-3-3-3-3-3-3-3--5-5-5-5-5-5-5-5-|
|-----3-----3-----5-----1---3-3-3-3-3-3-3-3--3-3-3-3-3-3-3-3-|
|-----1---------------------1-1-1-1-1-1-1-1------------------|

2 times

Chrous:
Face the king  ride the wind  for the legend of steel
|---------------------------------------------------------|
|---------------------------------------------------------|
|----------7--------------3-------------5-----------------|
|----------7--------------3-------------5---------3-------|
|----------5--------------1-------------3---------3-------|
|-------------------------------------------------1-------|
LEAVE DARK HELL BEHIND YOU FOREVER
|-----------------------------------|
|-----------------------------------|
|------------3---------------------2|
|------------3---------2-----------2|        X2
|------------1---------2-----------0|
|----------------------0------------|
 FACE THE KING
|-----------------|
|-----------------|
|-3----5---7------|
|-3----5---7------|
|-1----3---5------|
|-----------------|

|---------------------------------------------------------------|
|-10-101010-10-13-11-10-----------------10----------------------|
|-----------------------12-12-121212-12----12-10-9--------------|
|--------------------------------------------------12-121212-12-|
|---------------------------------------------------------------|
|---------------------------------------------------------------|

               
|--------------------------------------|-------------------------|
|--------------------------------------|-------------------------|
|--------------------------------------|-------------------------|
|-12-14-15-12--14-17-15-17-14-17-12-17-|-15-19-17-19-15-19-14-19-|
|--------------------------------------|-------------------------|
|--------------------------------------|-------------------------|

|---------------------------------------------------------------|
|-10-101010-10-13-11-10-----------------10----------------------|
|-----------------------12-12-121212-12----12-10-9--------------|
|--------------------------------------------------12-121212-12-|
|---------------------------------------------------------------|
|---------------------------------------------------------------|

|--------------------------------------|
|--------------------------------------|
|--------------------------------------|
|-12-14-15-12--15-19-17-19-15-19-14-19-|
|--------------------------------------|
|--------------------------------------|
TWICE

     And then the day came
|--------------------------------------|
|--------------------------------------|
|--------------------------------------|
|-7-7-7-7-7-7-7-7-7-7-7-7-7-7-7-7-7-7-7|
|-5-5-5-5-5-5-5-5-5-4-4-4-4-4-4-4-4-4-4|
|--------------------------------------|

      Son against father

|---------------------------------|
|---------------------------------|
|---------------------------------|
|---------------------------------|
|5-5-5-5-5-5-5-5--3-3-3-3-2-2-2-2-|
|3-3-3-3-3-3-3-3--1-1-1-1-0-0-0-0-|

2 times

Hard was the fight..         So red the ice was never
|------------------------------------------------------------|
|------------------------------------------------------------|
|-----------5-----7-----3--------------------5-5-5-5-5-5-5-5-|
|-----3-----5-----7-----3---3-3-3-3-3-3-3-3--5-5-5-5-5-5-5-5-|
|-----3-----3-----5-----1---3-3-3-3-3-3-3-3--3-3-3-3-3-3-3-3-|
|-----1---------------------1-1-1-1-1-1-1-1------------------|

2 Times

Chrous:

Face the king  ride the wind  for the legend of steel
|---------------------------------------------------------|
|---------------------------------------------------------|
|----------7--------------3-------------5-----------------|
|----------7--------------3-------------5---------3-------|
|----------5--------------1-------------3---------3-------|
|-------------------------------------------------1-------|
LEAVE DARK HELL BEHIND YOU FOREVER
|-----------------------------------|
|-----------------------------------|
|------------3---------------------2|
|------------3---------2-----------2|        X2
|------------1---------2-----------0|
|----------------------0------------|

 FACE THE  "Oh beholder, what did...   May the Lord forgive..."
|---------------------------------------------------------------------|
|---------------------------------------------------------------------|
|--3---5--------------------------------------------------------------|
|--3---5---7---------------------------6------------------------------|
|--1---3---5-5555555555555555555555555-4-444444444444444444444444-----|
|---------------------------------------------------------------------|
   The black raven...         While the brave one's only...
|------------------------------------------------------------|
|------------------------------------------------------------|
|------------------------------------------------------------|
|--7--------------------------6------------------------------|
|--5-555555555555555555555555-4-444444444444444444444444-----|
|------------------------------------------------------------|
 But he swears | "I'll be back
 In last breath| To take you to the dark Alkar
                                   The kingdom of PAAAAAAAAAAAAAIN
|------------------------------------------------|----------------|
|------------------------------------------------|----------------|
|-9-9-9---------6-6-6--6-6-6---------------------|----------------|
|-9-9-9--2-2-2--6-6-6--6-6-6--6------------------|--6-4-----------|
|-7-7-7--2-2-2--4-4-4--4-4-4--6------------------|------7-6-4-----|
|--------0-0-0----------------4-444444444444444--|4-----------7-4-|

Solo: hard to tab, it is tremolo-sweep technic, just needs good practice.
|-17p13----------13-171717171717-13----------13-171717171717-|
|-------15----15--------------------15----15-----------------|
|----------14--------------------------14--------------------|
|------------------------------------------------------------|
|------------------------------------------------------------|
|------------------------------------------------------------|


|-16p12----------12-161616161616-12----------12-161616161616-|
|-------14----14--------------------14----14-----------------|
|----------13--------------------------13--------------------|
|------------------------------------------------------------|
|------------------------------------------------------------|
|------------------------------------------------------------|


|-16p12-16p12----------12-17p12-16p12----------12-16p12-16p12----------12-|
|-------------14----14----------------14----14----------------14----14----|
|----------------13----------------------13----------------------13-------|
|-------------------------------------------------------------------------|
|-------------------------------------------------------------------------|
|-------------------------------------------------------------------------|


|-17p12-16p12----------12-16p12-16p12----------12-17p12-|
|-------------14----14----------------14----14----------|
|----------------13----------------------13-------------|
|-------------------------------------------------------|
|-------------------------------------------------------|
|-------------------------------------------------------|


|-20-17-16-------------------------------------------------------------|
|----------19-17-16----------------------------------------------------|
|-------------------18-17-14----------------------------------14-17-18-|
|----------------------------18-16-14----------------14-16-18----------|
|-------------------------------------18-16-15-16-18-------------------|
|----------------------------------------------------------------------|

|---------------------------|
|-16-17-19----17h19p17-16-17|
|---------------------------|
|---------------------------|    Keyboard enter
|---------------------------|
|---------------------------|

Then long solo, sorry, barely heard the rythem.

then

Face the king  ride the wind  for the legend of steel
|---------------------------------------------------------|
|---------------------------------------------------------|
|----------7--------------3-------------5-----------------|
|----------7--------------3-------------5---------3-------|
|----------5--------------1-------------3---------3-------|
|-------------------------------------------------1-------|
LEAVE DARK HELL BEHIND YOU FOREVER
|-----------------------------------|
|-----------------------------------|
|------------3---------------------2|
|------------3---------2-----------2|        X2
|------------1---------2-----------0|
|----------------------0------------|
 FACE THE KING
|-----------------|
|-----------------|
|-3----5---7------|
|-3----5---7------|
|-1----3---5------|
|-----------------|

|---------------------------------------------------------------|
|-10-101010-10-13-11-10-----------------10----------------------|
|-----------------------12-12-121212-12----12-10-9--------------|
|--------------------------------------------------12-121212-12-|
|---------------------------------------------------------------|
|---------------------------------------------------------------|

               
|--------------------------------------|-------------------------|
|--------------------------------------|-------------------------|
|----------------------------------12--|-------------------------|
|-12-14-15-12--14-17-15-17-14-17-12----|-15-19-17-19-15-19-14-19-|
|--------------------------------------|-------------------------|
|--------------------------------------|-------------------------|

|---------------------------------------------------------------|
|-10-101010-10-13-11-10-----------------10----------------------|
|-----------------------12-12-121212-12----12-10-9--------------|
|--------------------------------------------------12-121212-12-|
|---------------------------------------------------------------|
|---------------------------------------------------------------|

|----------------------------------------|
|----------------------------------------|
|-----------------------------------14---|
|-12-14-15-12--15-19-17-19-15-19-14----12|
|----------------------------------------|
|----------------------------------------|
Three times
|-----|
|-----|
|--7--|
|--7--|
|--5--|
|-----|

If anyone tab the rythem for key solo, please tell me.

Eldad
Tap to rate this tab
 
# A B C D E F G H I J K L M N O P Q R S T U V W X Y Z