Song name
# A B C D E F G H I J K L M N O P Q R S T U V W X Y Z

Lucerin Blue - Monday In Vegas tab

MONDAY IN VEGAS
As recorded by Lucerin Blue
(From the 2003 Album TALES OF THE KNIFE)
Transcribed by Aidan (Hairhockey@hotmail.com)	Words and Music by Lucerin Blue
 
Gtr I (Db Ab Db Gb Bb Eb) - 'Clean'
Gtr II (Db Ab Db Gb Bb Eb) - 'Heavy Distortion'
 Clean Intro
  D5
 4/4
  Gtr I
|-----------------|-----------------|
|-----------------|-----------------|
|-----------------|-----------------|
|-----------------|-----------------|
|-----------------|-----------------|
|-0-0-0-0-0-0-0-0-|-0-0-0-0-0-0-0-0-|

  Gtr I
||--------------------|-----------------------|
||o-------------------|-----------------------|
||--------------------|-----------------------|
||--------------------|-----------------------|
||o-------------------|-----------------------|
||--0-0-12-0-0-12-0-0-|-10-12-0-12---12-10-12-|


  Bb5                 G5

|-------------------|-------------------||
|-------------------|------------------o||
|-------10-------10-|-------7-------7---||
|-----8----8---8----|-----5---5---5-----||
|---8--------8------|---5-------5------o||
|-8-----------------|-5-----------------||


|-----------------|-----------------|-------------------|
|-----------------|-----------------|-------------------|
|-------7-------7-|-------7-------7-|-------7-(7)-------|
|-----5---5---5---|-----5---5---5---|-----5-------------|
|---5-------5-----|---5-------5-----|---5---------------|
|-5---------------|-5---------------|-5-----------------|


   Heavy Intro
    D5                                  Bb5                G5
    Gtr II
                                                                             4x
||------------------|-----------------|------------------|-------------------||
||o-----------------|-----------------|-------10---6-----|-------5---6------o||
||------7-----7-----|-5-7---7---7-5-7-|-------10---7-----|-------7---7-------||
||--0-0-7-0-0-7-0-0-|-5-7-0-7-0-7-5-7-|-8-8-8--8-8-5-8-8-|-5-5-5-5-5-5-5-5---||
||o-0-0-5-0-0-5-0-0-|-3-5-0-5-0-5-3-5-|-8-8-8----8---8-8-|-5-5-5---5---5-5--o||
||--0-0-0-0-0-0-0-0-|-0-0-0-0-0-0-0-0-|-8-8-8----8---8-8-|-5-5-5---5---5-5---||


  D5
|----------|------------|------------|------------------|
|----------|------------|------------|------------------|
|----------|------------|------------|------------------|
|-0--------|-(0)--------|-(0)--------|-(0)----(0)--12\--|
|-0--------|-(0)--------|-(0)--------|-(0)----(0)--12\--|
|-0--------|-(0)--------|-(0)--------|-(0)----(0)--12\--|


 Verse 1
  D5
|--------------|------------------|------------------|----------------------|
|--------------|------------------|------------------|----------------------|
|--------------|-10-9--12--10-9---|----------------5-|-(5)-5-5-5-5-10-10-10-|
|-0-0--0-0--0--|--x-x---x---x-x-8-|-(8)-8-8-8-8-0--x-|-(x)-x-x-x-x--x--x--x-|
|-0-0--0-0--0--|--8-7--10---8-7-8-|-(8)-8-8-8-8-0--3-|-(3)-3-3-3-3--8--8--8-|
|-0-0--0-0--0--|----------------8-|-(8)-8-8-8-8-0----|----------------------|


|--------------|---------------|------------------|----------------------|
|--------------|---------------|------------------|----------------------|
|--------------|-10-9--7--5--3-|-(3)-3-3-3-3----5-|-(5)-5-5-5-5-10-10-10-|
|-0-0--0-0--0--|--x-x--x--x--3-|-(3)-3-3-3-3-0--x-|-(x)-x-x-x-x--x--x--x-|
|-0-0--0-0--0--|--8-7--5--3--1-|-(1)-1-1-1-1-0--3-|-(3)-3-3-3-3--8--8--8-|
|-0-0--0-0--0--|---------------|-------------0----|----------------------|


|--------------|-------------------|------------------|----------------------|
|--------------|-------------------|------------------|----------------------|
|--------------|-10s9s10-12--14----|----------------5-|-(5)-5-5-5-5-10-10-10-|
|-0-0--0-0--0--|--x-x--x--x---x--8-|-(8)-8-8-8-8-0--x-|-(x)-x-x-x-x--x--x--x-|
|-0-0--0-0--0--|--8s7s=8-10--12--8-|-(8)-8-8-8-8-0--3-|-(3)-3-3-3-3--8--8--8-|
|-0-0--0-0--0--|-----------------8-|-(8)-8-8-8-8-0----|----------------------|


|--------------|---------------|------------------|----------------------|
|--------------|---------------|------------------|----------------------|
|--------------|-10-9--5-----3-|-(3)-3-3-3-3----5-|-(5)-5-5-5-5-10-10-10-|
|-0-0--0-0--0--|--x-x--x--7--3-|-(3)-3-3-3-3-0--x-|-(x)-x-x-x-x--x--x--x-|
|-0-0--0-0--0--|--8-7--3--x--1-|-(1)-1-1-1-1-0--3-|-(3)-3-3-3-3--8--8--8-|
|-0-0--0-0--0--|----------7----|-------------0----|----------------------|


   Pre-Chorus
    D5
      PM|   PM|   PM--|   PM|
||------------------|-----------------|
||o-----------------|---------6-8-6---|
||--7-----7-----7---|---7-----7-7-7---|
||------------------|-----------------|
||o-5-5-5-5-5-5-5-5-|-5-5-5-5-5-5-5-3-|
||------------------|-----------------|


  Bb5
|------------------|-------------------------|
|------------------|-------------------------|
|-7-----9-----10---|----9-------10-----9-----|
|-8-----8------8---|---10-------10----10-----|
|------------------|-------------------------|
|-8-8-8-8-8-8--8-8-|-8-10-10-10-10-10-10-10--|


  D5
|------------------|------------------|
|------------------|------------------|
|-7-----7-----10-9-|---7-----10-9-----|
|-x-----x------x-x-|---x------x-x-----|
|-5-5-5-5-5-5--5-5-|-5-5-5-5--5-5-5-5-|
|------------------|------------------|


  Bb5
|------------------|-------------------------||
|------------------|------------------------o||
|-7-----9-----10---|----9-------10-----9-----||
|-8-----8------8---|---10-------10----10-----||
|------------------|------------------------o||
|-8-8-8-8-8-8--8-8-|-8-10-10-10-10-10-10-10--||


   Chorus
                                                                             4x
||------------------|-----------------|------------------|-------------------||
||o-----------------|-----------------|-------10---6-----|-------5---6------o||
||------7-----7-----|-5-7---7---7-5-7-|-------10---7-----|-------7---7-------||
||--0-0-7-0-0-7-0-0-|-5-7-0-7-0-7-5-7-|-8-8-8--8-8-5-8-8-|-5-5-5-5-5-5-5-5---||
||o-0-0-5-0-0-5-0-0-|-3-5-0-5-0-5-3-5-|-8-8-8----8---8-8-|-5-5-5---5---5-5--o||
||--0-0-0-0-0-0-0-0-|-0-0-0-0-0-0-0-0-|-8-8-8----8---8-8-|-5-5-5---5---5-5---||


|------------|---------------|-----------|-------|
|------------|---------------|-----------|-------|
|------------|---------------|-----------|-------|
|-0---0---0--|-(0)-0---0---0-|---0---0---|-0-----|
|-0---0---0--|-(0)-0---0---0-|---0---0---|-0-----|
|-0---0---0--|-(0)-0---0---0-|---0---0---|-0-----|


 Verse 2
|--------------|------------------|------------------|----------------------|
|--------------|------------------|------------------|----------------------|
|--------------|-10-9--12--10-9---|----------------5-|-(5)-5-5-5-5-10-10-10-|
|-0-0--0-0--0--|--x-x---x---x-x-8-|-(8)-8-8-8-8-0--x-|-(x)-x-x-x-x--x--x--x-|
|-0-0--0-0--0--|--8-7--10---8-7-8-|-(8)-8-8-8-8-0--3-|-(3)-3-3-3-3--8--8--8-|
|-0-0--0-0--0--|----------------8-|-(8)-8-8-8-8-0----|----------------------|


|--------------|---------------|------------------|----------------------|
|--------------|---------------|------------------|----------------------|
|--------------|-10-9--7--5--3-|-(3)-3-3-3-3----5-|-(5)-5-5-5-5-10-10-10-|
|-0-0--0-0--0--|--x-x--x--x--3-|-(3)-3-3-3-3-0--x-|-(x)-x-x-x-x--x--x--x-|
|-0-0--0-0--0--|--8-7--5--3--1-|-(1)-1-1-1-1-0--3-|-(3)-3-3-3-3--8--8--8-|
|-0-0--0-0--0--|---------------|-------------0----|----------------------|


|--------------|-------------------|------------------|----------------------|
|--------------|-------------------|------------------|----------------------|
|--------------|-10s9s10-12--14----|----------------5-|-(5)-5-5-5-5-10-10-10-|
|-0-0--0-0--0--|--x-x--x--x---x--8-|-(8)-8-8-8-8-0--x-|-(x)-x-x-x-x--x--x--x-|
|-0-0--0-0--0--|--8s7s=8-10--12--8-|-(8)-8-8-8-8-0--3-|-(3)-3-3-3-3--8--8--8-|
|-0-0--0-0--0--|-----------------8-|-(8)-8-8-8-8-0----|----------------------|


|--------------|--------------------|
|--------------|--------------------|
|--------------|-10-9--10-12-12-9-9-|
|-0-0--0-0--0--|--x-x---x--x--x-x---|
|-0-0--0-0--0--|--8-7---8-10-10-7-7-|
|-0-0--0-0--0--|------------------8-|


   Interlude
||--------------------|-------------------|
||o-------------------|-------------------|
||--(9)-9-9-9-9-10--9-|-(9)-9-9-9-9-10--9-|
||--------------------|-------------------|
||o-(7)-7-7-7-7--8--7-|-(7)-7-7-7-7--8--7-|
||--(8)-8-8-8-8--8--8-|-(8)-8-8-8-8--8--8-|


|-------------------|--------------------|
|-------------------|--------------------|
|-(9)-9-9-9-9-10--9-|-(9)-9-9-9-9-10--9--|
|-------------------|--------------------|
|-(7)-7-7-7-7--8--7-|-(7)-7-7-7-7--8--7--|
|-(8)-8-8-8-8--8--8-|-(8)-8-8-8-8--8--0--|


|-------------------|-------------------|
|-------------------|-------------------|
|-(9)-9-9-9-9-10--9-|-(9)-9-9-9-9-10--9-|
|-------------------|-------------------|
|-(7)-7-7-7-7--8--7-|-(7)-7-7-7-7--8--7-|
|-(0)-0-0-0-0--0--0-|-(0)-0-0-0-0--0--0-|


                     1.                    2.
|-------------------|--------------------||----------------|
|-------------------|-------------------o||----------------|
|-(9)-9-9-9-9-10--9-|-(9)-9-9-9-9-10--9--||-9-9-9-9-9-10---|
|-------------------|--------------------||----------------|
|-(7)-7-7-7-7--8--7-|-(7)-7-7-7-7--8--7-o||-7-7-7-7-7--8---|
|-(0)-0-0-0-0--0--0-|-(0)-0-0-0-0--0--8--||-0-0-0-0-0--0---|


   Bridge
    Gtr I
                                                                              8x
||-------------------|------------------|-----------------|-------------------||
||o------------------|------------------|--------10---8---|--------10---8----o||
||--------9---10-----|-------9---10-----|--------10---9---|--------10---9-----||
||------8---8----8---|-----0---0----0---|-10-10--10--10---|-10-10--10--10-----||
||o---8------------8-|---0------------0-|-10-10-----------|-10-10------------o||
||--8----------------|-0----------------|-10-10-----------|-10-10-------------||


   Pre-Chorus
    Gtr II
      PM|   PM|   PM--|   PM|
||------------------|-----------------|
||o-----------------|---------6-8-6---|
||--7-----7-----7---|---7-----7-7-7---|
||------------------|-----------------|
||o-5-5-5-5-5-5-5-5-|-5-5-5-5-5-5-5-3-|
||------------------|-----------------|


|------------------|-------------------------|
|------------------|-------------------------|
|-7-----9-----10---|----9-------10-----9-----|
|-8-----8------8---|---10-------10----10-----|
|------------------|-------------------------|
|-8-8-8-8-8-8--8-8-|-8-10-10-10-10-10-10-10--|


|------------------|------------------|
|------------------|------------------|
|-7-----7-----10-9-|---7-----10-9-----|
|-x-----x------x-x-|---x------x-x-----|
|-5-5-5-5-5-5--5-5-|-5-5-5-5--5-5-5-5-|
|------------------|------------------|


|------------------|-------------------------||
|------------------|------------------------o||
|-7-----9-----10---|----9-------10-----9-----||
|-8-----8------8---|---10-------10----10-----||
|------------------|------------------------o||
|-8-8-8-8-8-8--8-8-|-8-10-10-10-10-10-10-10--||


   Chorus/Outro
                                                                             8x
||------------------|-----------------|------------------|-------------------||
||o-----------------|-----------------|-------10---6-----|-------5---6------o||
||------7-----7-----|-5-7---7---7-5-7-|-------10---7-----|-------7---7-------||
||--0-0-7-0-0-7-0-0-|-5-7-0-7-0-7-5-7-|-8-8-8--8-8-5-8-8-|-5-5-5-5-5-5-5-5---||
||o-0-0-5-0-0-5-0-0-|-3-5-0-5-0-5-3-5-|-8-8-8----8---8-8-|-5-5-5---5---5-5--o||
||--0-0-0-0-0-0-0-0-|-0-0-0-0-0-0-0-0-|-8-8-8----8---8-8-|-5-5-5---5---5-5---||


|-----------------*|
|-----------------*|
|-----------------*|
|-0-0--0-0--0-----*|
|-0-0--0-0--0-----*|
|-0-0--0-0--0-----*|


 
Tablature Legend
----------------
 h   - hammer-on
 p   - pull-off
 b   - bend
 pb  - pre-bend
 r   - bend release (if no number after the r, then release immediately)
 /\  - slide into or out of (from/to "nowhere")
 s   - legato slide
 S   - shift slide
 - natural harmonic
[n]  - artificial harmonic
n(n) - tapped harmonic
 ~   - vibrato
 tr  - trill
 T   - tap
 TP  - trem. picking
 PM  - palm muting
\n/  - tremolo bar dip; n = amount to dip
 \n  - tremolo bar down
 n/  - tremolo bar up
/n\  - tremolo bar inverted dip
 =   - hold bend; also acts as connecting device for hammers/pulls
 <> - volume swell (louder/softer)
 x   - on rhythm slash represents muted slash
 o   - on rhythm slash represents single note slash

Misc Legend
-----------
 |  - bar
||  - double bar
||o - repeat start
o|| - repeat end
*|  - double bar (ending)
 :  - bar (freetime)
 $  - Segno
 &  - Coda
Tempo markers -  = BPM(8/16=s8/s16), where s8 = swing 8ths, s16 = swing 16ths

 

Tap to rate this tab
# A B C D E F G H I J K L M N O P Q R S T U V W X Y Z