Song name
# A B C D E F G H I J K L M N O P Q R S T U V W X Y Z

Lucerin Blue - This Letter tab

THIS LETTER
As recorded by Lucerin Blue
(From the 2003 Album TALES OF THE KNIFE)


Gtr I (Db Ab Db Gb Bb Eb) - 'Distortion 1'
Gtr II (Db Ab Db Gb Bb Eb) - 'Clean 1'
Gtr III (Db Ab Db Gb Bb Eb) - 'Clean 2'
Gtr IV (Db Ab Db Gb Bb Eb) - 'Distortion 2'
Gtr V (Db Ab Db Gb Bb Eb) - 'Acoustic Solo'
INTRO/VERSE
  Gtr I
|---------||------------------------|--------------------|
|---------||o-10-10--x-x-10-10--x-x-|-10-10--x-x-10-10---|
|---------||---9--9--x-x--9--9--x-x-|--9--9--x-x--9--9---|
|---------||---7--7--x-x--7--7--x-x-|--7--7--x-x--7--7---|
|---------||o-----------------------|--------------------|
|---------||------------------------|--------------------|


  F5                      Dm/G                 A5
|-----------------------|--------------------|------------------------|
|-----------------------|--------------------|-10-10--x-x-10-10--x-x--|
|-10-10--x-x-10-10--x-x-|-10-10--x-x-10-10---|--9--9--x-x--9--9--x-x--|
|-10-10--x-x-10-10--x-x-|-12-12--x-x-12-12---|--7--7--x-x--7--7--x-x--|
|--8--8--x-x--8--8--x-x-|-10-10--x-x-10-10---|------------------------|
|-----------------------|--------------------|------------------------|


                       F5                      Dm/G
|--------------------|-----------------------|---------------------||
|-10-10--x-x-10-10---|-----------------------|--------------------o||
|--9--9--x-x--9--9---|-10-10--x-x-10-10--x-x-|-10-10--x-x-10-10----||
|--7--7--x-x--7--7---|-10-10--x-x-10-10--x-x-|-12-12--x-x-12-12----||
|--------------------|--8--8--x-x--8--8--x-x-|-10-10--x-x-10-10---o||
|--------------------|-----------------------|---------------------||

 Gtr II
 Another verse      
|-----------------------------|-------------------------|
|-----------------------------|-----------------8----8--|
|-------7--9----7-9----7--9---|--7-9----7--9------------|
|-----------------------------|-------------------------|
|-----------------------------|-------------------------|
|-----------------------------|-------------------------|


|------------------------------|-----------------------------|
|-(8)--------------------------|----------------10----10-----|
|--------7--9----7-9----7--9---|--7-9----7--9----------------|
|------------------------------|-----------------------------|
|------------------------------|-----------------------------|
|------------------------------|-----------------------------|

|-------------------------------|-------------------------|
|-(10)--------------------------|-----------------8----8--|
|---------7--9----7-9----7--9---|--7-9----7--9------------|
|-------------------------------|-------------------------|
|-------------------------------|-------------------------|
|-------------------------------|-------------------------|


|------------------------------|-----------------------------|
|-(8)--------------------------|----------------10----10-----|
|--------7--9----7-9----7--9---|--7-9----7--9----------------|
|------------------------------|-----------------------------|
|------------------------------|-----------------------------|
|------------------------------|-----------------------------|

PRE-CHORUS
||-----------------------------|---------------------------|
||o----------------------------|---------------------------|
||-----10-10----10-10-10----10-|-(10)--9----9--9--9--9---9-|
||------7--7-----7--7--7-----7-|--(7)-10---10-10-10-10--10-|
||o-----8--8-----8--8--8-----8-|--(8)--7----7--7--7--7---7-|
||------0--0-----0--0--0-----0-|-------7----7--7--7--7---7-|
|
||-----10----------10--------8-|--(8)----8-----------8-----|
||o-10-------10----------10----|------10---------10--------|
||-----------------------------|---------------------------|
||-----------------------------|---------------------------|
||o----------------------------|---------------------------|
||-----------------------------|---------------------------|


|------------------------|-------------------------|
|------------------------|-------------------------|
|--(9)-7---7---7-7-7---7-|-(7)-7---7---7-7-7---7---|
|-(10)-5---5---5-5-5---5-|-(5)-5---5---5-5-5---5---|
|--(7)-5---5---5-5-5---5-|-(5)-5---5---5-5-5---5---|
|------5---5---5-5-5---5-|-----5---5---5-5-5---5---|
|
|------7-8---7---8-7---7-|--8--7-8---7-----7-8-7---|
|---8----------------8---|---------------8---------|
|------------------------|-------------------------|
|------------------------|-------------------------|
|------------------------|-------------------------|
|------------------------|-------------------------|


|----------------------------|---------------------------|------------------------------|
|----------------------------|---------------------------|------------------------------|
|----10-10----10-10-10----10-|-(10)--9----9--9--9--9---9-|--(9)-12---12---12-12-12---12-|
|-----7--7-----7--7--7-----7-|--(7)-10---10-10-10-10--10-|-(10)-10---10---10-10-10---10-|
|-----8--8-----8--8--8-----8-|--(8)--7----7--7--7--7---7-|--(7)-10---10---10-10-10---10-|
|-----0--0-----0--0--0-----0-|-------7----7--7--7--7---7-|------10---10---10-10-10---10-|
|
|----10----------10--------8-|--(8)----8-----------8-----|-------7-8----7-----8--7----7-|
|-10-------10----------10----|------10---------10--------|---8---------------------8----|
|----------------------------|---------------------------|------------------------------|
|----------------------------|---------------------------|------------------------------|
|----------------------------|---------------------------|------------------------------|
|----------------------------|---------------------------|------------------------------|

1 is the first ending 2 is second
 1.                              2.
|-------------------------------||---------------------------------|
|------------------------------o||---------------------------------|
|-(12)-12---12---12-12-12---12--||-12-12---12---12-12-(12)---------|
|-(10)-10---10---10-10-10---10--||-10-10---10---10-10-(10)-12\-----|
|-(10)-10---10---10-10-10---10-o||-10-10---10---10-10-(10)-12\-----|
|------10---10---10-10-10---10--||-10-10---10---10-10-(10)-12\-----|
|
|---8---7-8----7--------7-8--7--||--8--7-8----7---------7---8--7---|
|--------------------8---------o||------------------8--------------|
|-------------------------------||---------------------------------|
|-------------------------------||---------------------------------|
|------------------------------o||---------------------------------|
|-------------------------------||---------------------------------|


 CHORUS
    Gtr IV
||--------------|-1-1--1-1----|-------------|
||o-------------|-3-3--3-3----|-------------|
||--------------|-2-2--2-2----|-5-5--5-5----|
||--7-7--7-7----|-0-0--0-0----|-3-3--3-3----|
||o-7-7--7-7----|-0-0--0-0----|-3-3--3-3----|
||--7-7--7-7----|-0-0--0-0----|-3-3--3-3----|


 1.              2.
|--------------||---------------|----------|--------|
|-------------o||---------------|----------|--------|
|-7-7--7-7-----||-7-7--7-7--7-7-|-7--------|-(7)----|
|-5-5--5-5-----||-5-5--5-5--5-5-|-5--------|-(5)----|
|-5-5--5-5----o||-5-5--5-5--5-5-|-5--------|-(5)----|
|-5-5--5-5-----||-5-5--5-5--5-5-|-5--------|-(5)----|

Go and play the “anther Verse”, then the pre chorus and then PROCEED


CHORUS
    A5            Dm            F5            G5
||--------------|-1-1--1-1----|-------------|--------------||
||o-------------|-3-3--3-3----|-------------|-------------o||
||--------------|-2-2--2-2----|-5-5--5-5----|-7-7--7-7-----||
||--7-7--7-7----|-0-0--0-0----|-3-3--3-3----|-5-5--5-5-----||
||o-7-7--7-7----|-0-0--0-0----|-3-3--3-3----|-5-5--5-5----o||
||--7-7--7-7----|-0-0--0-0----|-3-3--3-3----|-5-5--5-5-----||


    A5                  Dm       G5Dm/A
||--------------------|-1-1----1-3-1--|
||o-------------------|-3-3----3-3-3--|
||--------------------|-2-2----2-2-2--|
||--7-7--x-x-7-7--x-x-|-0-0--x--------|
||o-7-7--x-x-7-7--x-x-|-0-0--x--------|
||--7-7--x-x-7-7--x-x-|-0-0--x--------|


  F5                  G5
|-------------------|----------------------||
|-------------------|---------------------o||
|-5-5--x-x-5-5--x-x-|-7-7--x-x-7-7--x-x----||
|-3-3--x-x-3-3--x-x-|-5-5--x-x-5-5--x-x----||
|-3-3--x-x-3-3--x-x-|-5-5--x-x-5-5--x-x---o||
|-3-3--x-x-3-3--x-x-|-5-5--x-x-5-5--x-x----||


    Am
    Gtr III
BACKING GUITAR FOR ACOUSTIC SOLO
||----------------|-------8---------|-----------------|---------------------||
||o--------5-6----|-5-6-----6-5-----|---------5-------|--------------------o||
||-----5-7-----7--|-----7-----------|---------------5-|-(5)-----5-4-5---5---||
||--7-------------|-------------7-x-|---7---7-----7---|-------7-------------||
||o---------------|-----------------|-7---7-----7-----|-----7---------7----o||
||----------------|-----------------|-----------------|---------------------||


 Gtr V
ACOUSTIC SOLO
|---------------------|-------------------|
|---------------------|-------------------|
|---------------------|-------------------|
|-5-------------------|-------------------|
|------8-7-7h8-(8)----|-(8)---------------|
|---------------------|-------------------|


|----------------------------|---------------------|
|----------------------------|---------------------|
|----------------------------|---------------------|
|----------------------------|---------------------|
|-10-8---7-8-7---5-5-7-7h8-7-|-(7)-----------------|
|----------------------------|---------------------|

|-----------------------|------------------------------------|
|-----------------------|-------------5-6---8-8s10---8-5-6-5s|
|-----------------------|-4-5---7-(7)------------------------|
|--------------5-(5)-7--|------------------------------------|
|--------7-8------------|------------------------------------|
|-----------------------|------------------------------------|

|---------------------|-------------------|
|-3-6-(6)-5---5---8s==|=10----------------|
|-----------7---------|-------------------|
|---------------------|-------------------|
|---------------------|-------------------|
|---------------------|-------------------|

|-8----7-5-5-7------(7)-|---------------------------|
|-----------------------|-----5-6-6s8---6---5---(5)-|
|-----------------------|---------------------------|
|-----------------------|---------------------------|
|-----------------------|---------------------------|
|-----------------------|---------------------------|

|---------------------------------|--------------------|
|-6-5-----5-----------------------|--------------------|
|-------7---7---5-7-5---4-5-4-----|--------------------|
|-------------------------------5-|--5s7-------(7)-----|
|---------------------------------|--------------------|
|---------------------------------|--------------------|

|---------------------|------------------------|
|---------------------|------------------------|
|---------------------|------------------------|
|-7-5-----------------|------------------------|
|-------8-7-----(7)-8-|-7-5---------(5)--------|
|---------------------|------------------------|

|----------------------------|-------------------------|
|----------------------------|-------------------------|
|----------------------------|-------------5-----5-7---|
|----------------------------|---------5s7-------------|
|-3-5---7-(7)---7---8---8s10-|-10----------------------|
|----------------------------|-------------------------|

|--------------------------|-------------------------|
|-5-6-6s8-6---5-5h6-(6)----|-------------------------|
|--------------------------|-7-5-7-5-4-5-4-----------|
|--------------------------|---------------5-5s7-5---|
|--------------------------|-------------------------|
|--------------------------|-------------------------|

|-----------------------|---------------------|
|-----------------------|---------------------|
|-----------------------|---------------------|
|-(5)-------------------|---------------------|
|---------5-----7-8-7-5-|-(5)-----------------|
|-----------------------|---------------------|

|-------------------|---------------------|
|-------------------|---------------------|
|-------------------|---------------------|
|-------------------|---------------------|
|-3-2-3---------(3)-|-(3)-------0h2h3h5-7-|
|-------------------|---------------------|

|-----------------|----------------------|
|-----------------|----------------------|
|-----------------|----------------------|
|-----------------|----------------------|
|-8-7-5-7-5-7-5-5-|-(5)-3-2-0-----(0)----|
|-----------------|----------------------|


   F/D                       C/A
|---------------------|-------------------------|
|---------------------|-------------------------|
|--10-10-10-10-10--10-|-(10)--9--9--9--9--9---9-|
|---7--7--7--7--7---7-|--(7)-10-10-10-10-10--10-|
|---8--8--8--8--8---8-|--(8)--7--7--7--7--7---7-|
|---0--0--0--0--0---0-|-------7--7--7--7--7---7-|


       G5
|-------------------|------------------|
|-------------------|------------------|
|--(9)-7-7-7-7-7--7-|-(7)-7-7-7-7-7-7--|
|-(10)-5-5-5-5-5--5-|-(5)-5-5-5-5-5-5--|
|--(7)-5-5-5-5-5--5-|-(5)-5-5-5-5-5-5--|
|------5-5-5-5-5--5-|-----5-5-5-5-5-5--|


  F/D                       C/A
|-------------------------|-------------------------|
|-------------------------|-------------------------|
|-10-10-10-10-10--10-(10)-|--9--9--9--9--9---9--(9)-|
|--7--7--7--7--7---7--(7)-|-10-10-10-10-10--10-(10)-|
|--8--8--8--8--8---8--(8)-|--7--7--7--7--7---7--(7)-|
|--0--0--0--0--0---0------|--7--7--7--7--7---7------|


  C5                        C5
|-------------------------|-----------------------|
|-------------------------|-----------------------|
|-12-12-12-12-12--12-(12)-|-12-12-12-12-12--12-12-|
|-10-10-10-10-10--10-(10)-|-10-10-10-10-10--10-10-|
|-10-10-10-10-10--10-(10)-|-10-10-10-10-10--10-10-|
|-10-10-10-10-10--10------|-10-10-10-10-10--10-10-|

OUTRO/CHORUS thing
       F/D                            C/A
    Gtr IV
||-----------------------------|---------------------------|
||o----------------------------|---------------------------|
||-----10-10----10-10-10----10-|-(10)--9----9--9--9--9---9-|
||------7--7-----7--7--7-----7-|--(7)-10---10-10-10-10--10-|
||o-----8--8-----8--8--8-----8-|--(8)--7----7--7--7--7---7-|
||------0--0-----0--0--0-----0-|-------7----7--7--7--7---7-|
|
|   Gtr II
||-----10----------10--------8-|--(8)----8-----------8-----|
||o-10-------10----------10----|------10---------10--------|
||-----------------------------|---------------------------|
||-----------------------------|---------------------------|
||o----------------------------|---------------------------|
||-----------------------------|---------------------------|


       G5                      G5
|------------------------|-------------------------|
|------------------------|-------------------------|
|--(9)-7---7---7-7-7---7-|-(7)-7---7---7-7-7---7---|
|-(10)-5---5---5-5-5---5-|-(5)-5---5---5-5-5---5---|
|--(7)-5---5---5-5-5---5-|-(5)-5---5---5-5-5---5---|
|------5---5---5-5-5---5-|-----5---5---5-5-5---5---|
|
|------7-8---7---8-7---7-|--8--7-8---7-----7-8-7---|
|---8----------------8---|---------------8---------|
|------------------------|-------------------------|
|------------------------|-------------------------|
|------------------------|-------------------------|
|------------------------|-------------------------|


                                                               1.
  F/D                          C/A                              C5
|----------------------------|--------------------------------|------------------------------|
|----------------------------|--------------------------------|------------------------------|
|-10----10-10-10-10--10-(10)-|--9------9----9--9--9----9--(9)-|-12---12---12-12-12---12-(12)-|
|--7-----7--7--7--7---7--(7)-|-10-----10---10-10-10---10-(10)-|-10---10---10-10-10---10-(10)-|
|--8-----8--8--8--8---8--(8)-|--7------7----7--7--7----7--(7)-|-10---10---10-10-10---10-(10)-|
|--0-----0--0--0--0---0------|--7------7----7--7--7----7------|-10---10---10-10-10---10------|
|
|----10----------10-------8--|-(8)-------8----------8---------|----7----8-----7--8-7------7--|
|-10----------10-----10------|-----10------------10-----------|--8--------------------8------|
|----------------------------|--------------------------------|------------------------------|
|----------------------------|--------------------------------|------------------------------|
|----------------------------|--------------------------------|------------------------------|
|----------------------------|--------------------------------|------------------------------|


                                2.
                                 C5
|-----------------------------||---------------------------------|-------------------------------|
|----------------------------o||---------------------------------|-------------------------------|
|-12---12---12-12-12---12-12--||-12----12----12-12-12----12-(12)-|-12----12----12-12-12----12-12-|
|-10---10---10-10-10---10-10--||-10----10----10-10-10----10-(10)-|-10----10----10-10-10----10-10-|
|-10---10---10-10-10---10-10-o||-10----10----10-10-10----10-(10)-|-10----10----10-10-10----10-10-|
|-10---10---10-10-10---10-10--||-10----10----10-10-10----10------|-10----10----10-10-10----10-10-|
|
|--8-7----8-----7----7--8--7--||----15----15----15-15----15--15--|-15-15----------15-15-15----15-|
|------------------8---------o||-13-------------------13---------|----------13-------------13----|
|-----------------------------||---------------------------------|-------------------------------|
|-----------------------------||---------------------------------|-------------------------------|
|----------------------------o||---------------------------------|-------------------------------|
|-----------------------------||---------------------------------|-------------------------------|


    A5                            Dm
    Gtr IV
||------------------------------|---1-----1--------1--3-1--|
||o-----------------------------|---3-----3--------3--3-3--|
||------------------------------|---2-----2--------2--2-2--|
||---7----7---7-7--7-7------7-7-|---0-----0-----0----------|
||o--7----7---7-7--7-7------7-7-|---0-----0-----0----------|
||---7----7---7-7--7-7------7-7-|---0-----0-----0----------|
|
||-----12---------12-------13---|-(13)------13-------13----|
||o-13-------13--------13-------|------13---------13-------|
||------------------------------|--------------------------|
||------------------------------|--------------------------|
||o-----------------------------|--------------------------|
||------------------------------|--------------------------|


  F5                                  G5
                                                                          4x
|-----------------------------------|-------------------------------------||
|-----------------------------------|------------------------------------o||
|--5----5------5-5--5----5------5-5-|--7----7------7-7--7----7------7-7---||
|--3----3------3-3--3----3------3-3-|--5----5------5-5--5----5------5-5---||
|--3----3------3-3--3----3------3-3-|--5----5------5-5--5----5------5-5--o||
|--3----3------3-3--3----3------3-3-|--5----5------5-5--5----5------5-5---||
|
|                                                                         4x
|----15---15--15---15------15--15---|-15-15-------15---15-15-------15-----||
|-13------------------13------------|---------13---------------13--------o||
|-----------------------------------|-------------------------------------||
|-----------------------------------|-------------------------------------||
|-----------------------------------|------------------------------------o||
|-----------------------------------|-------------------------------------||


  A5
   >                                    >
|-----------------|------------------|------------------|------------------*|
|-----------------|------------------|------------------|------------------*|
|-----------------|------------------|------------------|------------------*|
|--7--------------|-(7)--------------|-(7)--------------|-(7)--------------*|
|--7--------------|-(7)--------------|-(7)--------------|-(7)--------------*|
|--7--------------|-(7)--------------|-(7)--------------|-(7)--------------*|
|
|  >                                    >
|-17--17--17--17--|-17---17--17--17--|-17---17--17--17--|-17---17--17--17--*|
|-----------------|------------------|------------------|------------------*|
|-----------------|------------------|------------------|------------------*|
|-----------------|------------------|------------------|------------------*|
|-----------------|------------------|------------------|------------------*|
|-----------------|------------------|------------------|------------------*|
Tap to rate this tab
# A B C D E F G H I J K L M N O P Q R S T U V W X Y Z