Song name
# A B C D E F G H I J K L M N O P Q R S T U V W X Y Z

Lucerin Blue - Man Made Weapon tab

This is tuned in drop D at least thats how i play it its a great song and the band rocks.

Verse
|--------------------------------------|
|--------------------------------------|
|-----------------5----------------9---| 
|-7-5-7-/-0-0-3-3-5--7-5-7-/-0-0-3-9---|  x 2
|-7-5-7-/-0-0-3-3-3--7-5-7-/-0-0-3-7---|
|-7-5-7-/-0-0-3-3----7-5-7-/-0-0-3-----|

Pre chorus
|-------------------------------------|
|-------------------------------------|
|-9----------8------------------------|
|-9----------9-----7-7--7--7-x--------|  x 1
|-7----------7-----7-7--7--7-x--------|
|------------------7-7--7--7-x--------|

Chorus
|-------------------------------------------------|
|-------------------------------------------------|
|-------------5---------------------5------5-4----|
|-7--0--3-----5----5-----7--0--3----5---5--5-4--5-|
|-7--0--3-----3----5-----7--0--3----3---5--3-2--5-|
|-7--0--3----------5-----7--0--3--------5-------5-|


Bridge
|------------------------------------------------------|
|------------------------------------------------------|
|-----------5--4--0--5--4--------------5-4-0-5-4-0-0-4-|
|-3-3-3-x-x----------------0-0-0-x-x-x-----------------|  x 4
|-3-3-3-x-x----------------0-0-0-x-x-x-----------------|
|-3-3-3-x-x----------------0-0-0-x-x-x-----------------|

Other part
|--------------------------------------|
|------10-------------10---------------|
|----------9---------------10----------|
|-7---------------7--------------------|  x 4
|--------------------------------------|
|--------------------------------------|

Ending
|--------------------------------------|
|--------------------------------------|
|--------------------------------------|
|-3-x-0-x-7-/////----------------------|
|-3-x-0-x-7-/////----------------------|
|-3-x-0-x-7-/////----------------------|

Thats the song, hope you like it.
If you have any comments or questions e-mail me at crayola_22_88@yahoo.com
Tap to rate this tab
# A B C D E F G H I J K L M N O P Q R S T U V W X Y Z