Guitaretab - guitar tabs
Song name
# A B C D E F G H I J K L M N O P Q R S T U V W X Y Z

Lucerin Blue - Monday In Vegas tab

Lucerin Blue Ė Monday in Vegas
Tabbed by: Devin Davis
I play this song with Drop D tuning.

Intro - Delay
|---------------------------------------------------------------------|
|-----------------5-------4-------5-------4---------------------------|
|---------------4---4---4-------4---4---4---------6-------6(----6---6)|
|-------------6-------6-------6-------6---------6---6---6--(---6-6-6-)|
|-44444444--4---------------4-----------------4-------4----(--4---4--)|
|-------------------------------------------4--------------(-4-------)|
Donít do the part in () any different, I just didnít have enough room
to fit it all in so I had to squeeze it in there. 

Chorus
|---------------------------------------------------------------|
|---------------------------------------------------------------|
|-------------------------------------------13-9---------8-9----| x4
|-11-11-11-9h11-11-11-9h11-11-11-9-11-9-777-x--x-7s9-9-9-x-x----|
|-11-11-11-9h11-11-11-9h11-11-11-9-11-9-777-11-7-7s9-9-9-6-7----|
|-11-11-11-9h11-11-11-9h11-11-11-9-11-9-777------7s9-9-9--------|

Post Chorus

|--------------|
|--------------|
|--------------|
|-11~~~~~------|
|-11~~~~~------|
|-11~~~~~------|

Verse - Distortion
|---------------------------------------------------------------|
|---------------------------------------------------------------|
|---------------------9-8-11-9---------------------------9-9----|
|-11-11---11-11---11--x-x--x-x-9-7--7-7-7-7-2--9--9-9--9-x-x----|
|-11-11---11-11---11--7-6--9-7-9-7--7-7-7-7-2--9--9-9--9-7-7----|
|-11-11---11-11---11-----------9-7--7-7-7-7-2--9--9-9--9--------|
[ Tab from: http://www.guitaretab.com/l/lucerin-blue/68749.html ]
|----------------------------------------------------------------|
|-----------------------------------------------12-121212-17-17--|
|---------------------9-8-9-11-13-14-14-14--14---x--x-x-x-x--x---|
|-11-11---11-11---11--x-x-x-x--x--x--x--x---x--9-9--9-9-9-14-14--| x2
|-11-11---11-11---11--7-6-7-9--11-12-12-12--12-9-----------------|
|-11-11---11-11---11---------------------------9-----------------|

|----------------------------------------------------------------|
|----------------------------------------------------------------|
|---------------------9-8----------------------------------------|
|-11-11---11-11---11--x-x-9-6-7--7-7--7-7--9--9-9--9-9-----------|
|-11-11---11-11---11--7-6-9-6-7--7-7--7-7--9--9-9--9-9-----------|
|-11-11---11-11---11------9-6-7--7-7--7-7--9--9-9--9-9-----------|


Pre-Chorus
|-----------------------------------------------------------------|
|-----------------------------------------------------------------|
|------------9/11\9---8-9-8-9-8-------9-8-6-9-8---8-9-8-9-8-------|
|-11-11-11-11-x/x\x-7-x-x-x-x-x-11-11-x-x-x-x-x-7-x-x-x-x-x-------| x 2
|-11-11-11-11-7/9\7-7-6-7-6-7-6-11-11-7-6-4-7-6-7-6-7-6-7-6-------|
|-11-11-11-11-------7-----------11-11-----------7-----------------|

|-------------------------------------------------|
|-------------------------------------------------|
|-------------------------------------------------|
|-11--11---11--11---11-11-11-11---11--11-11---11--|
|-11--11---11--11---11-11-11-11---11--11-11---11--|
|-11--11---11--11---11-11-11-11---11--11-11---11--|

|----------------------|
|----------------------|
|----------------------|
|-13--13-13-13-13-14---| x 16
|-11--11-11-11-11-11---|
|-11--11-11-11-11-11---|


Clean part
|--------------------------------4--2---------4--2----|
|--4-----4-5---4-----4-5---4-----4--2---4-----4--2----|
|----4-----------4-----------4------------4-----------|
|------6-----6-----6-----6-----6------6-----6---------| x 8
|-----------------------------------------------------|
|-----------------------------------------------------|

Ending
|----------------------|
|----------------------|
|----------------------|
|-11-11---11-11---11---|
|-11-11---11-11---11---|
|-11-11---11-11---11---|


Thatís it if you have any corrections or comments email me at crayola_22_88@yahoo.com
Related for Monday In Vegas tab