Song name
# A B C D E F G H I J K L M N O P Q R S T U V W X Y Z

Lucero - Into Your Eyes tab

Help us improve GuitareTab! Take a short survey!
-------------------------------------------------------------------------------
			     Into Your Eyes - Lucero
-------------------------------------------------------------------------------
Tabbed by:Chris
Email:deerkillerdf2

Tuning:Standard (EADGBe)

Second tab overall but if its not 100% correct, its pretty close.  Enjoy the tab and 
you had fun learning it!!

00:00-00:10
e|---------------------------------------------------------------------------|
B|-----3-3---------3-3---------3-3---------3-3-------------------------------|
G|---2-----2-----2-----2-----2-----2-----2-----2-----------------------------|
D|-0---------0-0---------0-0---------0-0---------0-0-------------------------|
A|---------------------------------------------------------------------------|
E|---------------------------------------------------------------------------|

00:10-00:20
e|--------------------------------------------------------------------------|
B|-----3-----3-----3-----3-----3-----3-----3-----3--------------------------|
G|---2-----2-----2-----2-----2-----2-----2-----2----------------------------|
D|-0-----------0-----------0-----------0------------------------------------|
A|-------0-----------0-----------0-----------0------------------------------|
E|--------------------------------------------------------------------------|

00:20-00:31
e|--------------------------------------------------------------------------|
B|--------3-----------3-----------3-----3-----3-----3-----------------------|
G|------0---0-------0---0-------2-----2-----2-----2-------------------------|
D|----0-------0---0-------0---0-----------0---------------------------------|
A|----------------------------------0-----------0---------------------------|
E|--3-----------3-----------------------------------------------------------|

00:31-00:41
e|--------------------------------------------------------------------------|
B|----------------------------------3-----------3---------------------------|
G|------2-2---------2-2-----------0---0-------0---0-------------------------|
D|----0-----0-----0-----0-------0-------0---0-------0-----------------------|
A|--0---------0-0---------0-------------------------------------------------|
E|----------------------------3-----------3-----------3---------------------|

00:41-00:47
e|---------------------------------------------------------------------------|
B|-----3-3---------3-3-------------------------------------------------------|
G|---2-----2-----2-----2-----------------------------------------------------|
D|-0---------0-0---------0---------------------------------------------------|
A|---------------------------------------------------------------------------|
E|---------------------------------------------------------------------------|

00:47-00:57
e|--------------------------------------------------------------------------|
B|-----3-----3-----3-----3-----3-----3-----3-----3--------------------------|
G|---2-----2-----2-----2-----2-----2-----2-----2----------------------------|
D|-0-----------0-----------0-----------0------------------------------------|
A|-------0-----------0-----------0-----------0------------------------------|
E|--------------------------------------------------------------------------|

00:57-01:07
e|--------------------------------------------------------------------------|
B|--------3-----------3------------3-3---------3-3--------------------------|
G|------0---0-------0---0--------2-----2-----2-----2------------------------|
D|----0-------0---0-------0----0---------0-0---------0----------------------|
A|--------------------------------------------------------------------------|
E|--3-----------3-----------------------------------------------------------|

01:07-01:18
e|--------------------------------------------------------------------------|
B|----------------------------------3-----------3---------------------------|
G|------2-2---------2-2-----------0---0-------0---0-------------------------|
D|----0-----0-----0-----0-------0-------0---0-------0-----------------------|
A|--0---------0-0---------0-------------------------------------------------|
E|----------------------------3-----------3---------------------------------|

01:18-01:28
e|--------------------------------------------------------------------------|
B|-----3-3---------3-3--------------3-----------3---------------------------|
G|---2-----2-----2-----2----------0---0-------0---0-------------------------|
D|-0---------0-0---------0------0-------0---0-------0-----------------------|
A|--------------------------------------------------------------------------|
E|----------------------------3-----------3---------------------------------|

01:28-01:33
e|--------------------------------------------------------------------------|
B|-----3-3---------3-3------------------------------------------------------|
G|---2-----2-----2-----2----------------------------------------------------|
D|-0---------0-0---------0--------------------------------------------------|
A|--------------------------------------------------------------------------|
E|--------------------------------------------------------------------------|

01:33-01:44
e|--------------------------------------------------------------------------|
B|----------------------------------3-----------3---------------------------|
G|------2-2---------2-2-----------0---0-------0---0-------------------------|
D|----0-----0-----0-----0-------0-------0---0-------0-----------------------|
A|--0---------0-0---------0-------------------------------------------------|
E|----------------------------3-----------3---------------------------------|

01:44-01:49
e|--------------------------------------------------------------------------|
B|-----3-3---------3-3------------------------------------------------------|
G|---2-----2-----2-----2----------------------------------------------------|
D|-0---------0-0---------0--------------------------------------------------|
A|--------------------------------------------------------------------------|
E|--------------------------------------------------------------------------|

01:49-02:00
e|--------------------------------------------------------------------------|
B|----------------------------------3-----------3---------------------------|
G|------2-2---------2-2-----------0---0-------0---0-------------------------|
D|----0-----0-----0-----0-------0-------0---0-------0-----------------------|
A|--0---------0-0---------0-------------------------------------------------|
E|----------------------------3-----------3---------------------------------|

02:00-02:13
e|--------------------------------------------------------------------------|
B|-----3-3---------3-3---------3--------------------------------------------|
G|---2-----2-----2-----2-------2--------------------------------------------|
D|-0---------0-0---------0-----0--------------------------------------------|
A|--------------------------------------------------------------------------|
E|--------------------------------------------------------------------------|
Related for Into Your Eyes tab