Song name
# A B C D E F G H I J K L M N O P Q R S T U V W X Y Z

Lucero - Ill Just Fall tab

-------------------------------------------------------------------------------
			     SONG NAME - Lucero
-------------------------------------------------------------------------------
Tabbed by:AJ
Email:aj.dedios@yahoo.com

Tuning:pretty sure its standard

e|---------------------------------------------------------------------------|
B|---------------------------------------------------------------------------|
G|---------------------------------------------------------------------------|
D|-----9------9------9-----9-------9----9------9------9----------------------|
A|-------6-----6-------6-----6------6----6------6------6---------------------|
E|-7-7-----7-----7-7-----7------0-0----0----0-0-----0------------------------|

e|---------------------------------------------------------------------------|
B|---------------------------------------------------------------------------|
G|---------------------------------------------------------------------------|
D|-----9-------9--------9-------9---------9-------9---------9------9-------- |
A|-------7-------7--------7-------7---------7-------7---------7------7-------|
E|-9-9------9-------9-9------9-------0-0-------0-------0-0-------0-----------|

Repeat throughout verse
Tap to rate this tab
 
# A B C D E F G H I J K L M N O P Q R S T U V W X Y Z