Song name
# A B C D E F G H I J K L M N O P Q R S T U V W X Y Z

Lucero - Sweet Little Thing tab

Main Riff:

------------------------------------|
------------------------------------|
------------------------------------|
-7-6---6h7p6-4s2---2-----2----------|
-5---5-------0---0-----2-----2h4p2--|
---------------------0-----0--------|

Verses chords:

D A E

There's also that high riff that Brian plays during some of the verses
Not sure about this, but I think it's:

D A E
--0----0----0--|
--10---10---0--|
--7----9----9--|
--0------------|
---------------|
---------------|

Chorus chords:

A B D E

I think this sounds best when you play the B and D as "add 9" barre chords
(x24422 and x57755), but suit yourself.

Part at the end where the chorus changes:

A B D
Tap to rate this tab
 
# A B C D E F G H I J K L M N O P Q R S T U V W X Y Z