Song name
# A B C D E F G H I J K L M N O P Q R S T U V W X Y Z

Lucero - Wandering Star Live tab

sONG: Wandering Star
aRTIST: Lucero
tABBED: Mychael Jones




PART 1

E|-020----------------------------|
B|----0-353-1-310-----------------|
G|---------4----------------------|
D|2----0--------------------------|
A|--------------------------------|
E|--------------------------------|



PART 2

E|--2--2--2--2--2--2--2--2--2--2--|
B|--------------------------------|
G|--------------------------------|
D|22-22-22-22-00-00-00-00---------|
A|------------------------00-00-00|
E|--------------------------------|

E|2--2--2--2--2--2----------------|
B|--------------------------------|
G|--------------------------------|
D|----22-22-22-22-----------------|
A|-00-----------------------------|
E|--------------------------------|


Then the chords i think are something like
G, D, C (im not sure on the c part, but g and d sound good)
Tap to rate this tab
# A B C D E F G H I J K L M N O P Q R S T U V W X Y Z