Song name
# A B C D E F G H I J K L M N O P Q R S T U V W X Y Z

Lucero - A Heart So True tab

Lucero
A HEART SO TRUE INTRO
FROM THE ALBUM-THE ATTIC TAPES-TRACK-07
MUSIC BY LUCERO (tab by b.forrest)


e---------------------------------------------------------------------------|
b---------------------------------------------------------------------------|
g---------------------------------------------------------------------------|
d-----2-2-4--------2-2-4------4-2--------2-----4-2----------2------4-2------|
a 0-4----------0-4-------------------2-4---------------2-4----2-2-----------|
E---------------------------0--------------0-0------------------------------|


e---------------------------------------------------------------------------|
b---------------------------------------------------------------------------|
g---------------------------------------------------------------------------|
d------2-----4-2---------2-2-4----------------------------------------------|
a 2-4----2-2------2b0--4-------0--------------------------------------------|
E---------------------------------------------------------------------------|
Tap to rate this tab
# A B C D E F G H I J K L M N O P Q R S T U V W X Y Z