Song name
# A B C D E F G H I J K L M N O P Q R S T U V W X Y Z

Luciano Ligabue - Ho Messo Via tab

This is the piano part of the intro, arranged for guitar. You can see me playing 
it at http://www.youtube.com/watch?v=W2S0Bup_fuA

          G                  C
e|--------3------3----2h3--2----|--0------0-------0-2-3-|
B|--------3----3---3----------3-|--1----1---1-----1-3-5-|
G|--------0--0------------------|--0--0-----------------|
D|--------0---------------------|--2--------------------|
A|--------2---------------------|--3--------------------|
E|--------3---------------------|--3--------------------|


  Em                         C       D
--0-------0---------------|--0---------2------|
--0-----0---0--0--1--3p1--|--1---1p0---3------|
--0---0--------0--0--0----|--0---------2------|
--2-----------------------|--2----------------|
--2-----------------------|--3----------------|
--0-----------------------|--3----------------|
Tap to rate this tab
# A B C D E F G H I J K L M N O P Q R S T U V W X Y Z