Song name
# A B C D E F G H I J K L M N O P Q R S T U V W X Y Z

Luciano Ligabue - Ci Sei Sempre Stata tab

Tia (Borgo)
Solo Ci Sei Sempre Stata - Ligabue
Suona Bene...


e|------------------------------------------12-----------------------------|
B|--7b8b7-5---7---7b8b7-5---/108p9-8p9--/12-------------------------------|
G|----------6-------------6--------------------11b13b11-9-11---------------|
D|-----------------------------------------------------------9-9-----------|
A|-------------------------------------------------------------------------|
E|-------------------------------------------------------------------------|

e|---------------------------------------12-12-14-16-17/19-17p16-----------|
B|--7b8b7-5--7---7b8b7-5--/108p9-8p9--/12------------------------19-------|
G|---------6------------6--------------------------------------------------|
D|-------------------------------------------------------------------------|
A|-------------------------------------------------------------------------|
E|-------------------------------------------------------------------------|

e|-------------------------------------12-12----12-12----------------------|
B|--17-19b21-19b22-19b21--17-19-17--/14------/14------12p14p12-------------|
G|-------------------------------------------------------------13-11-9-----|
D|-------------------------------------------------------------------------|
A|-------------------------------------------------------------------------|
E|-------------------------------------------------------------------------|
                            sweep
e|------------------------------9-12p9----14p12-12p9-----------------------|
B|----------------------------10------10p9----------10p9-------------------|
G|--11-11b13b11-11-13-------11--------------------------11p9---------------|
D|--------------------9-9-----------------------------------11--7-9-/11-11-|
A|-------------------------------------------------------------------------|
E|-------------------------------------------------------------------------|
                          sweep
e|----------------------------16-17p16-17p16-17b19b17p16---------------------|
B|------9-12b14b12-9--------17--------------------------17b19----------------|
G|--9p11------------11----18-------------------------------------------------|
D|---------------------------------------------------------------------------|
A|---------------------------------------------------------------------------|
E|---------------------------------------------------------------------------|

e|-------------------------------------------------------------------------|
B|-------------------------------------------------------------------------|
G|--4-/11---------------4--------------------------------------------------|
D|--------9-9--/4-------4--------------------------------------------------|
A|----------------2--2--2--------------------------------------------------|
E|-------------------------------------------------------------------------|
Tap to rate this tab
 
# A B C D E F G H I J K L M N O P Q R S T U V W X Y Z