Song name
# A B C D E F G H I J K L M N O P Q R S T U V W X Y Z

Luciano Pavarotti - Rigoletto - La Donna E Mobile tab

-------------------------------------------------------------------------------
             RIGOLETTO - LA DONNA E MOBILE - LUCIANO PAVAROTTI
-------------------------------------------------------------------------------

Tabbed by: Stardog
Email: st4rdog@gmail.com
25th Jul 09

This was tabbed from the sheet music on La Donna e Mobile wikipedia page.

E||-----------|------------|-----------|------------|-----------|------------|
B||--0--0--0--|--3--1------|-----------|--1--0------|--0--------|------------|
G||-----------|-------2----|--2--2--2--|-------0----|-----2--0--|--0---------|
D||-----------|------------|-----------|------------|-----------|-------3----|
A||-----------|------------|-----------|------------|-----------|------------|
E||-----------|------------|-----------|------------|-----------|------------|
    La donna  mobile      | Qual piuma al vento    | Muta d'accento         |

|-----------|-----------||
|-----------|-----------||
|--2--0-----|-----------||
|--------2--|--2---0----||
|-----------|-----------||
|-----------|-----------||
| e di pensiero         ||
Tap to rate this tab
 
# A B C D E F G H I J K L M N O P Q R S T U V W X Y Z