Song name
# A B C D E F G H I J K L M N O P Q R S T U V W X Y Z

Lucio Battisti - Amarsi Un Po tab

-----------------------------------------------------------------------------
			Lucio battisti - amarsi in pò (solo)
-----------------------------------------------------------------------------
Tabbed by: Stan
Email: Rotten_world@hotmail . it
Tuning: Standard
Date: 8-Jan-10 19:35



Cercare di suonare velocemente gli accordi/Try to play fast agreements

e:------------------------|------------------------|
B:-----------------0-0----|-----------------0-0----|
G:--------0-0--2-2--------|--------0-0--2-2--------|
D:------------------------|------------------------|
A:--0-0-0-----------------|--0-0-0-----------------|
E:------------------------|------------------------|

e:------------------------|------------------------|
B:------------------------|------------------------|
G:------------0-0---------|------------0-0---------|
D:--------4-4-----0-0-----|--------4-4-----0-0-----|  
A:------------------------|------------------------|
E:--3-3-3-----------------|--3-3-3-----------------|

_____________________________________________________________________________

Testo/text


Amarsi un po'
è come bere
più facile
è respirare.
Basta guardarsi e poi
avvicinarsi un po'
e non lasciarsi mai
impaurire no, no!
Amarsi un po'
è un po' fiorire
aiuta sai
a non morire.
Senza nascondersi
manifestandosi
si può eludere
la solitudine.

Però, però volersi bene no
partecipare
è difficile
quasi come volare.
Ma quanti ostacoli
e sofferenze e poi
sconforti e lacrime
per diventare noi,
veramente noi
uniti
indivisibili
vicini
ma irraggiungibili.

Però, però volersi bene no
partecipare
è difficile
quasi come volare.

Per diventare noi,
veramente noi
uniti
indivisibili
vicini
ma irraggiungibili...
Tap to rate this tab
# A B C D E F G H I J K L M N O P Q R S T U V W X Y Z