Lucio Battisti - Donna Selvaggia Donna tab

donna selvaggia donna


     Dm        C            A#        Am           Gm        F

E||--1---------0---------|--1---------0---------|--3---------1---------|
B||--3----3----1----1----|--3---------1---------|--3---------1---------|
G||--2---------0---------|--3----3----2----2----|--3---------2---------|
D||--0---------2---------|--3---------2---------|--5----5----3----3----|
A||------------3---------|--1---------0---------|--5---------3---------|
E||----------------------|----------------------|--3---------1---------|


  A

--0----------------|-------------------|-------------------|-------------------|
--2----------------|-------------------|-------------------|-------------------|
--2----------------|-------------------|-------------------|-------------------|
--2----------------|-------------------|--2----------------|--0----------------|
--0----------------|--0----------------|-------------------|-------------------|
-------------------|-------------------|-------------------|-------------------|


                   Dm                                     Dm

-------------------1------------|---------------------------------|
-------------------3------------|---------------------------------|
--------------2----2------------|--------2--3--2------------------|
--0----------------0------------|-----3-----------3--0------------|
-------0------------------------|---------------------------------|
--------------------------------|---------------------------------|


                                                     Dm

-------------------------------|---------------------1-------------|
-------------------------------|---------------------3-------------|
--------------2----0-----------|------0--2--3--2-----2-------------|
----0--------------------------|------------------3--0-----------0-|
---------0---------------------|-----------------------------------|
-------------------------------|-----------------------------------|



--------------------------|----------------------------------|
--------------------------|----------------------------------|
--------------------------|-----------------0----------------|
----------------2----3----|-----------0--L-----3-----------0-|
-----------0----3---------|----------------------------------|
--------------------------|----------------------------------|


                 Dm

-----------------1-----------|-----------------------------------|
-----------------3-----------|-----------------------------------|
------------2----2-----------|-----0--2--3--2--------------------|
-----------------0-----------|-----------------3--0--0--0--0--0--|
-------0---------------------|-----------------------------------|
-----------------------------|-----------------------------------|


                          Dm

--------------------------1----|
--------------------------3----|
-----0--2--3--2-----------2----|
-----------------3-----2--0----|
--------------------0----------|
-------------------------------|
Tap to rate this tab
 
# A B C D E F G H I J K L M N O P Q R S T U V W X Y Z