Song name
# A B C D E F G H I J K L M N O P Q R S T U V W X Y Z

Lucksmiths - From Macaulay Station tab

Hey, This is my first effort, from an amazing band. I know some of its out and 
would appreciate improvement. Thanks

standard tunning, sounds about right with a capo on 4.

Intro

E--------------|-------------|-------------|-------------|
B--------------|-------------|-------------|-------------|
G-----0--------|-----0-------|-----0-------|-----0-------|
D---2---2------|---0---0-----|---0---0-----|---0---0-----|
A-3-------3----|-2-------2---|---------2---|---------2---|
E--------------|-------------|-3-----------|-3-----------|
 

E--------------|-------------|-------------|-------------|
B--------------|-------------|-------------|-------------|
G-----0--------|-----0-------|-----0-------|-----0-------|
D---2---2------|---0---0-----|---0---0-----|---0---0-----|
A-3-------3----|-2-------2---|---------2---|---------2---|
E--------------|-------------|-3-----------|-3-----------|
 

Verse… I know by now

E--------------|-------------|-------------|-------------|
B--------------|-------------|-------------|-------------|
G-----0--------|-----0-------|-----0-------|-----0-------|
D---2---2------|---0---0-----|---0---0-----|---0---0-----|
A-3-------3----|-2-------2---|---------2---|---------2---|
E--------------|-------------|-3-----------|-3-----------|
 
That no one cheers up when told to

E--------------|-------------|-------------|-------------|
B--------------|-------------|-------------|-------------|
G-----0--------|-----0-------|-----0-------|-----0-------|
D---2---2------|---0---0-----|---2---2-----|---0---0-----|
A-3-------3----|-2-------2---|-0-------0---|-2-------2---|
E--------------|-------------|-------------|-------------|
 
Its more the hands that hold you

E--------------|-------------|-------------|-------------|
B--------------|-------------|-------------|-------------|
G-----0--------|-----0-------|-----0-------|-----0-------|
D---2---2------|---0---0-----|---2---2-----|---0---0-----|
A-3-------3----|-2-------2---|-0-------0---|-2-------2---|
E--------------|-------------|-------------|-------------|
 
Than whatever words were said. 

E--------------|-------------|-------------|-------------|
B-----1--------|-----1-------|-----1-------|-----1-------|
G---0---0------|---0---0-----|---0---0-----|---0---0-----|
D-3-------3----|-2-------2---|-0-------0---|-0-------0---|
A--------------|-------------|-------------|-------------|
E--------------|-------------|-------------|-------------|
 
Of course I know

E--------------|-------------|-------------|-------------|
B--------------|-------------|-------------|-------------|
G-----0--------|-----0-------|-----0-------|-----0-------|
D---2---2------|---0---0-----|---0---0-----|---0---0-----|
A-3-------3----|-2-------2---|---------2---|---------2---|
E--------------|-------------|-3-----------|-3-----------|

But you can’t blame me for trying

E--------------|-------------|-------------|-------------|
B--------------|-------------|-------------|-------------|
G-----0--------|-----0-------|-----0-------|-----0-------|
D---2---2------|---0---0-----|---2---2-----|---0---0-----|
A-3-------3----|-2-------2---|-0-------0---|-2-------2---|
E--------------|-------------|-------------|-------------|
 
I could hardly hear you crying

E--------------|-------------|-------------|-------------|
B--------------|-------------|-------------|-------------|
G-----0--------|-----0-------|-----0-------|-----0-------|
D---2---2------|---0---0-----|---2---2-----|---0---0-----|
A-3-------3----|-2-------2---|-0-------0---|-2-------2---|
E--------------|-------------|-------------|-------------|

For the traffic overhead

E--------------|-------------|-------------|-------------|
B-----1--------|-----1-------|-----1-------|-----1-------|
G---0---0------|---0---0-----|---0---0-----|---0---0-----|
D-3-------3----|-2-------2---|-0-------0---|-0-------0---|
A--------------|-------------|-------------|-------------|
E--------------|-------------|-------------|-------------|
 

Chorus

There will come a time                                  when there will come a train
E--------------|-------------|-------------|------------|
B--------------|-------------|-------------|------------|
G--------------|-------------|-------------|------------|
D-3--2---------|-------------|-3--2--------|------------|
A------3--0----|-------------|------3--0---|------------|
E--------------|-------------|-------------|------------|
 
To take us somewhere else

E--------------|-------------|-------------|-------------|
B--------------|-------------|-------------|-------------|
G-----0--------|-----0-------|-----0-------|-----0-------|
D---2---2------|---0---0-----|---0---0-----|---0---0-----|
A-3-------3----|-2-------2---|---------2---|---------2---|
E--------------|-------------|-3-----------|-3-----------|
 

E--------------|-------------|-------------|-------------|
B--------------|-------------|-------------|-------------|
G-----0--------|-----0-------|-----0-------|-----0-------|
D---2---2------|---0---0-----|---0---0-----|---0---0-----|
A-3-------3----|-2-------2---|---------2---|---------2---|
E--------------|-------------|-3-----------|-3-----------|


Same as verse 1…….

You figured out
You needn’t break a promise
For it to be dishonest
For you to be undone
But spare yourself the self-recriminations
And summon all your patience
For the summer still to come

’Cause there will come a time
When there will come a train
To take us somewhere else
Far away from the factory shells
And the shades of grey
From the pools of piss and the broken glass
Underneath the overpass
From the rush-hour roar and the nagging rain
There will come a time
There will come a train....
Tap to rate this tab
# A B C D E F G H I J K L M N O P Q R S T U V W X Y Z