Song name
# A B C D E F G H I J K L M N O P Q R S T U V W X Y Z

Lucksmiths - Stayaway Stars tab

-------------------------------------------------------------------------------
			     "Stayaway Stars" - The Lucksmiths
-------------------------------------------------------------------------------
Tabbed by: Corey J. Mahoney
Email: corey.mahoney@gmail.com

One of my favorites from an incredibly underrated band.
Capo on 5th fret, all chords and notes relative to that.

| h  hammer-on


[Verse] (same for all)
C   F           C  F
Yeah, you're upset
      C  F      F  C
So am I, so am I
  C  F        C   F       C   F         F  C
I sometimes forget just how seldom you cry
  Em                     Am
And thus how much I hate it when you do
  C  F        C   F       C   F         F   C

[Verse]
Yeah, you're a mess, more or less
So am I
I sometimes forget there are stars in the sky
- So nonchalant, though thoroughly thought through


[Bridge]
Am  F   Dm   C
Am  F   Dm

But instead another C play:
e|------------------------|
B|---------------------1--|
G|-------0----------------|
D|----2-----0------3------|
A|-3----------------------|
E|------------------------| x7

and finish the riff on:
e|--------------------|
B|--------------------|
G|-0h2--0-------------|
D|---------3--2-------|
A|-----------------3--|
E|--------------------|

[Verse]
Say you're OK
And I'll say "so am I"
And we'll call it a day
So goodnight, so goodbye
It's dark enough to disappear into

[End]
              Am               F
What sorry sights we sometimes are
                    Dm                  C
These sameshit nights under stayaway stars
                   Am                   F
These sameshit nights in the saddest bars
            Dm                     C
The city lights and the stayaway stars
      Am        F        Dm
Lalalala Lalalala Lalalala

e|------------------------|
B|---------------------1--|
G|-------0----------------|
D|----2-----0------3------|
A|-3----------------------|
E|------------------------|x3

e|------------------|
B|------------------|
G|-0h2--0-----------|
D|---------3--2-----|
A|---------------3--|
E|------------------|


                                        4NN<3
Tap to rate this tab
# A B C D E F G H I J K L M N O P Q R S T U V W X Y Z