Guitaretab - guitar tabs
Song name
# A B C D E F G H I J K L M N O P Q R S T U V W X Y Z

Lucky 7 - Come Monday tab

-----------------------
Come Monday - Lucky 7
-----------------------
Song by: Luck 7

This tab is the author's work and represents their interpretation of the song.

Tabbed by: Rozzer
Email: Voodoo_Squirrel@hotmail.com

Tuning: Standard (EADGBe)

I haven't bothered with the lead part with this, but the rest is all here...

>Intro:

e|-------------------|
B|-------------------|
G|--9999-------------|
D|--9999---etc....---|
A|--7777-------------|
E|-------------------|(fast strumming)

e|-------------------------------------------------------------|
B|-------------------------------------------------------------|
G|-------------------------------------------------------------|
D|--2-----------9-7-----------9-2-----------9-7-----------9-(2)|
A|--2-let ring--9-7-let ring--9-2-let ring--9-7-let ring--9-(2)|
E|--0-----------7-5-----------7-0-----------7-5-----------7-(0)|

                    (that last chord is the first chord in the verse.....)

>Verse:

Play each chord open, then palm mute it upto the next change.......
e|---------------------------------------------------------------|
B|---------------------------------------------------------------|
G|---------------------------------------------------------------|
D|--2-222---------7-777---------11-11-11-11--------9-999---------|
A|--2-222-etc...--7-777-etc...--11-11-11-11-etc..--9-999-etc..---|
E|--0-000---------5-555----------9--9--9--9--------7-777---------| 
      xxx           xxx             x  x  x          xxx
                          (repeat, on 2nd time last chord isn't palm muted)

>Bridge:
[ Tab from: http://www.guitaretab.com/l/lucky-7/130221.html ]
you'll have to listen to the timing of these changes, and struming pattern.....
e|-----------------------------------|
B|-----------------------------------|
G|-----------------------------------|
D|--4---4/6--7---11--9--7------------|
A|--4---4/6--7---11--9--7------------|
E|--2---2/4--5----9--7--5-----------|(repeat)

>Chorus:

"come monday...."
e|-------------------------------------------------------------|
B|-------------------------------------------------------------|
G|-------------------------------------------------------------|
D|--2-----------9-7-----------9-2-----------9-7-----------9-2--|
A|--2-let ring--9-7-let ring--9-2-let ring--9-7-let ring--9-2--|
E|--0-----------7-5-----------7-0-----------7-5-----------7-0--|
                               (let last chord ring into verse...)

>Verse 2:  

(See verse 1, but no guitar for first half)

>Bridge:

(Same as before)

>Chorus 2:

"come monday...."
e|------------------------------------------------------------|
B|------------------------------------------------------------|
G|------------------------------------------------------------|
D|--2-----------9-7-----------9-2-----------9-7-----------9-2-|
A|--2-let ring--9-7-let ring--9-2-let ring--9-7-let ring--9-2-|
E|--0-----------7-5-----------7-0-----------7-5-----------7-0-|
                                                 (let last chord ring ...)

>Middle 8:

e|-------------------------------------|-----------------------------|
B|-------------------------------------|-----------------------------|
G|----------66-666---------------------|----------66-666-------------|
D|--22-222--66-666--99-999--77-777-7/9-|--22-222--66-666--99-999--7--|
A|--22-222--44-444--99-999--77-777-7/9-|--22-222--44-444--99-999--7--|
E|--00-000----------77-777--55 555-5/7-|--00-000----------77-777--5--|
                                     (free struming on last chord)


>Bridge, then chorus part to the end of the song.

x = palm mute
/ = slide up
Related for Come Monday tab