Guitaretab - guitar tabs
Song name
# A B C D E F G H I J K L M N O P Q R S T U V W X Y Z

Lucky 7 - Took My Heart tab

  BAND:LUCKY 7
  SONG:TOOK MY HEART
  TABBED BY: TRENT =P

  INTRO:
  E|---------------------
  B|---------------------
  G|--5-*let-ring--------
  D|--5------------------
  A|--3------------------
  E|---------------------
  
  
  E|------------------------------------------
  B|------------------------------------------
  G|--5-8X--7-8X--8-8X--10-8x-----------------
  D|--5-----7-----10----12--------------------
  A|--3-----5-----10----12--------------------
  E|------------------------------------------


  E|------------------------------------------
  B|------------------------------------------
  G|--5-8X--7-8X--8-8X--10-8x--10---8----7---5
  D|--5-----7-----10----12-----12---10---7---5
  A|--3-----5-----10----12-----12---10---5---3
  E|-------------------------------------------


  E|----------------------------------------------
  B|----------------------------------------------
  G|--5-5-5-5--7-7--8--8---7-7-7-7--8--8---10-10--
  D|--5-5-5-5--7-5--10-10--7-7-7-7--10-10--12-12--
  A|--3-3-3-3--5-5--10-10--5-5-5-5--10-10--12-12--
  E|----------------------------------------------


  E|---------------------------------------------- ( the last power chord is the same chord
  B|---------------------------------------------- (as the one of verse)
  G|--8--8--8--8---10--10--8---8---7-7--5--------- (do not play that same power chord twice)
  D|--10-10-10-10--12--12--10--10--5-5--5---------
  A|--10-10-10-10--12--12--10--10--5-5--3---------
  E|----------------------------------------------


  VERSE:

  E|--------------------------
  B|--------------------------
  G|--5----7----8-----10------
  D|--5----5----10----12------
  A|--3----5----10----12------
  E|--------------------------
  
  
  E|------------------------------------------
  B|------------------------------------------
  G|--5-8X--7-8X--8-8X--10-8x-----------------
  D|--5-----7-----10----12--------------------
  A|--3-----5-----10----12--------------------
  E|------------------------------------------

  

  Chorus:

  E|------------------------------------------
  B|------------------------------------------
  G|--5--16X---7--16X---8--10X----------------
  D|--5--------7-------10---------------------
  A|--3--------5-------10---------------------
  E|------------------------------------------




    
  E|------------------------------------------
  B|------------------------------------------
  G|--5-8X--7-8X--8-8X--10-8x-----------------
  D|--5-----7-----10----12--------------------
  A|--3-----5-----10----12--------------------
  E|------------------------------------------
 
  E|----------------------------------------------
  B|----------------------------------------------
  G|--5-5-5-5--7-7--8--8---7-7-7-7--8--8---10-10--
  D|--5-5-5-5--7-5--10-10--7-7-7-7--10-10--12-12--
  A|--3-3-3-3--5-5--10-10--5-5-5-5--10-10--12-12--
  E|----------------------------------------------


  E|----------------------------------------------
  B|---------------------------------------------- 
  G|--8--8--8--8---10--10--8---8---7-7--5---------
  D|--10-10-10-10--12--12--10--10--5-5--5---------
  A|--10-10-10-10--12--12--10--10--5-5--3---------
  E|----------------------------------------------
   
 
  VERSE:
[ Tab from: http://www.guitaretab.com/l/lucky-7/46566.html ]
  E|--------------------------
  B|--------------------------
  G|--5----7----8-----10------
  D|--5----5----10----12------
  A|--3----5----10----12------
  E|--------------------------
  
  
  E|------------------------------------------
  B|------------------------------------------
  G|--5-8X--7-8X--8-8X--10-8x-----------------
  D|--5-----7-----10----12--------------------
  A|--3-----5-----10----12--------------------
  E|------------------------------------------



  Chorus: 

  E|------------------------------------------
  B|------------------------------------------
  G|--5--16X---7--16X---8--10X----------------
  D|--5--------7-------10---------------------
  A|--3--------5-------10---------------------
  E|------------------------------------------

  
  Palm Mute*
  E|------------------------------------------2X
  B|------------------------------------------
  G|--5-8X--7-8X--8-8X--10-8x-----------------
  D|--5-----7-----10----12--------------------
  A|--3-----5-----10----12--------------------
  E|------------------------------------------


  E|--------------------------
  B|--------------------------
  G|--5----7----8-----10------
  D|--5----5----10----12------
  A|--3----5----10----12------
  E|--------------------------

  Palm Muted
  E|------------------------------------------
  B|------------------------------------------
  G|--5-8X--7-8X--8-8X--10-8x-----------------
  D|--5-----7-----10----12--------------------
  A|--3-----5-----10----12--------------------
  E|------------------------------------------


  E|------------------------------------------ 2X
  B|------------------------------------------
  G|--5-8X--7-8X--8-8X--10-8x-----------------
  D|--5-----7-----10----12--------------------
  A|--3-----5-----10----12--------------------
  E|------------------------------------------



  Chorus:

  E|------------------------------------------
  B|------------------------------------------
  G|--5--16X---7--16X---8--10X----------------
  D|--5--------7-------10---------------------
  A|--3--------5-------10---------------------
  E|------------------------------------------

  E|------------------------------------------4X
  B|------------------------------------------
  G|--5-8X--7-8X--8-8X--10-8x-----------------
  D|--5-----7-----10----12--------------------
  A|--3-----5-----10----12--------------------
  E|------------------------------------------


  E|--------------------- this is what u end on
  B|---------------------
  G|--5-*let-ring--------
  D|--5------------------
  A|--3------------------
  E|---------------------





  Lyrics:


  You look into my eyes, then you realize
  Thru all the tears you've cried,
  I've been right by your side.
  But you don't understand that all I did was plan
  And try to be your man.
  That's something you can't deny.

  I feel I'm falling down,
  Cuz you mean much more than a friend
  And you took my heart again.

  Now you have the time,
  Just open up your mind and maybe then you'll try
  To see the other side.
  But you don't wanna be what you mean to me,
  Refusing to believe that I'm the one you love.

  I feel I'm falling down,
  Cuz you mean much more than a friend
  And you took my heart again.
Related for Took My Heart tab