Guitaretab - guitar tabs
Song name
# A B C D E F G H I J K L M N O P Q R S T U V W X Y Z

Lucky 7 - Where Are You tab

--------------
Where are you?
--------------
Written by: Lucky 7
Produced by: Daniel Mendez


Tabbed by: Rozzer
E-mail: Voodoo_squirrel@hotmail.com

Tunning: Standard (EADGBe)


Notes

X = palm muted note when under the tab, and muted string when in a     chord.

(chords in brackets are sounded at the chord change C listen to the cd!!)




INTRO


Gtr1 (0:11)

e|----------------------------------------------------------------|
B|----------------------------------------------------------------|
G|----------------------------------------------------------------|
D|--9----(9)-2----(2)-9----(9)-2----(2)-9----(9)-2----(2)-4-44...-|
A|--9----(9)-2----(2)-9----(9)-2----(2)-9----(9)-2----(2)-4-44...-|
E|--7----(7)-0----(0)-7----(7)-0----(0)-7----(7)-0----(0)-2-22...-|
                                                            xx...

Gtr1 (0:21)

e|--------------------------|
B|--------------------------|
G|--------------------------|
D|--9--9-9--9-9-9-9-9--2-2--|
A|--9--9-9--9-9-9-9-9--2-2--|
D|--7--7-7--7-7-7-7-7--0-0--| 2


Gtr2 (0:14)

e|--------------|
B|--------------|
G|--9--8--6--4--|
D|--x--x--x--x--|
A|--7--6-4--2--|
D|--------------|


Gtr2 (0:21)

e|--------------------------|
B|--------------------------|
G|--4-(4)-6-(6)-8-8-8--9-9--|
D|--x-(x)-x-(x)-x-x-x--x-x--|
A|--2-(2)-4-(4)-6-6-6--7-7--|
D|--------------------------| 2




VERSE 1

 What happened to the girl that I once knew...


Gtr1 (0:26)

e|-----------------------------------------|
B|-----------------------------------------|
G|-----------------------------------------|
D|--9-999999--2-222222--9-9999999999--2-2--|
A|--9-999999--2-222222--9-9999999999--2-2--|
E|--7-777777--0-000000--7-7777777777--0-0--|
      xxxxxx    xxxxxx    xxxxxxxxxx


e|------------------------------------|
B|------------------------------------|
G|------------------------------------|
D|--9-999999--2-222222--9-9999999999--|
A|--9-999999--2-222222--9-9999999999--|
E|--7-777777--0-000000--7-7777777777--|
      xxxxxx    xxxxxx    xxxxxxxxxx


Gtr1 (0:35)

Ive never been the same...

e|------------------------------------|
B|------------------------------------|
G|------------------------------------|
D|--4(10)2(10)-4(10)-2(2)-4(2)--|
A|--4(10)2(10)-4(10)-2(2)-4(2)--|
E|--2(10)-0(10)-2(10)-0(2)-2(2)--|


Gtr1 (0:45)

e|--------------------------|
B|--------------------------|
G|--------------------------|
D|--9--9-9--9-9-9-9-9--2-2--|
A|--9--9-9--9-9-9-9-9--2-2--|
D|--7--7-7--7-7-7-7-7--0-0--| 2


Gtr1 (0:51)

e|-----------------------------------------|
B|-----------------------------------------|
G|-----------------------------------------|
D|--9-999999--2-222222--9-9999999999--2-2--|
A|--9-999999--2-222222--9-9999999999--2-2--|
E|--7-777777--0-000000--7-7777777777--0-0--|
      xxxxxx    xxxxxx    xxxxxxxxxx


e|------------------------------------|
B|------------------------------------|
G|------------------------------------|
D|--9-999999--2-222222--9-9999999999--|
A|--9-999999--2-222222--9-9999999999--|
E|--7-777777--0-000000--7-7777777777--|
      xxxxxx    xxxxxx    xxxxxxxxxx


Gtr1 (1:01)

Ive never been the same...

e|------------------------------------|
B|------------------------------------|
G|------------------------------------|
D|--4(10)2(10)-4(10)-2(2)-4(2)--|
A|--4(10)2(10)-4(10)-2(2)-4(2)--|
E|--2(10)-0(10)-2(10)-0(2)-2(2)--|



Gtr2 (0:45)
[ Tab from: http://www.guitaretab.com/l/lucky-7/49692.html ]
e|--------------------------|
B|--------------------------|
G|--4-(4)-6-(6)-8-8-8--9-9--|
D|--x-(x)-x-(x)-x-x-x--x-x--|
A|--2-(2)-4-(4)-6-6-6--7-7--|
D|--------------------------| 2



CHORUS

Where are you?

Gtr1 (1:10) (play twice through)

e|------------------------------------------------|
B|------------------------------------------------|
G|------------------------------------------------|
D|--9--9-9-9-9--9-9-9-9-9--4--4-4-4-4--4-4-4-4-4--|
A|--9--9-9-9-9--9-9-9-9-9--4--4-4-4-4--4-4-4-4-4--|
D|--7--7-7-7-7--7-7-7-7-7--2--2-2-2-2--2-2-2-2-2--|

e|-----------------------------------------------|
B|-----------------------------------------------|
G|-----------------------------------------------|
D|--6--6-6-6-6--6-6-6-6-6--2-2-2-2-2--4-4-4-4-4--|
A|--6--6-6-6-6--6-6-6-6-6--2-2-2-2-2--4-4-4-4-4--|
D|--4--4-4-4-4--4-4-4-4-4--0-0-0-0-0--2-2-2-2-2--|


Gtr2

e|--------------|
B|--------------|
G|--8h9-8-------|
D|--------9-----|
A|--------------|
D|--------------|6


e|--------------------|
B|--------------------|
G|--------------------|
D|--9-6-8-9------8-9--|
A|-----------9-9------|
D|--------------------| (  This bit Im not so sure of)



BRIDGING PART / MIDDLE 8 (1:30)

Gtr1 (1:30)

e|---------------|
B|---------------|
G|---------------|
D|--9------------|
A|--9(let ring)-|
D|--7------------|


Gtr2 (1:34)

e|------------------------------|
B|------------------------------|
G|--8-----------4444444444------|
D|----9---------xxxxxxxxxx------|
A|------9-------2222222222------|
D|------------------------------|
                xxxxxxxxxx


Gtr1 (1:51)

e|-----------------------------------------------------------|
B|-----------------------------------------------------------|
G|-----------------------------------------------------------|
D|--9-999999-2-222222-9-99999999999999-9-999999-2-222222--4--|
A|--9-9999992-222222-9-99999999999999-9-999999-2-222222--4--|
D|--7-777777-0-000000-7-77777777777777-7-777777-0-000000--2--|
      xxxxx    xxxxxx   xxxxxxxxxxxxxx   xxxxxx   xxxxxx




Gtr1 (2:01)

e|--------------------------|
B|--------------------------|
G|--------------------------|
D|--9--9-9--9-9-9-9-9--2-2--|
A|--9--9-9--9-9-9-9-9--2-2--|
D|--7--7-7--7-7-7-7-7--0-0--| 3

e|-------------------------|
B|-------------------------|
G|-------------------------|
D|--9--9-9--9-9-9-9-9-9-9--|
A|--9--9-9--9-9-9-9-9-9-9--|
D|--7--7-7--7-7-7-7-7-7-7--|


Gtr2 (2:01)

e|--------------------------|
B|--------------------------|
G|--4-(4)-6-(6)-8-8-8--9-9--|
D|--x-(x)-x-(x)-x-x-x--x-x--|
A|--2-(2)-4-(4)-6-6-6--7-7--|
D|--------------------------| 3

e|------------|
B|------------|
G|--9-8-6-44--|
D|--x-x-x-xx--|
A|--7-6-4-22--|
D|------------| 2



Gtr1 (2:11)

Ive never been the same...

e|------------------------------------|
B|------------------------------------|
G|------------------------------------|
D|--4(10)2(10)-4(10)-2(2)-4(2)--|
A|--4(10)2(10)-4(10)-2(2)-4(2)--|
E|--2(10)-0(10)-2(10)-0(2)-2(2)--|



CHORUS 2 (SEE PREVIOUS)


END PART


Gtr1 (2:40)

e|--------------------------|
B|--------------------------|
G|--------------------------|
D|--9--9-9--9-9-9-9-9--2-2--|
A|--9--9-9--9-9-9-9-9--2-2--|
D|--7--7-7--7-7-7-7-7--0-0--| 4

e|-----|
B|-----|
G|-----|
D|--9--|
A|--9--|
D|--7--|


Gtr2 (2:40)

e|--------------------------|
B|--------------------------|
G|--4-(4)-6-(6)-8-8-8--9-9--|
D|--x-(x)-x-(x)-x-x-x--x-x--|
A|--2-(2)-4-(4)-6-6-6--7-7--|
D|--------------------------| 4

e|-----|
B|-----|
G|--4--|
D|--x--|
A|--2--|
D|-----|
Related for Where Are You tab