Song name
# A B C D E F G H I J K L M N O P Q R S T U V W X Y Z

Lucky 7 - Around The World Isnt Too Far tab

 Band: Lucky 7
Song: Around the World Isn't Too Far
Tabbed by: Alex GB (soccergb@san.rr.com)

Chord fingerings: EADGBE
G: 320033
Gmajor7: 32400x
C: x32010
D: x00323
Dsus4: x00233
Em: 022000

Chords: | G | Gmajor7 | Gmajor7 | C | C | D | Dsus4(one strum)

Harmonics: 7th fret -> 5th fret (G-string)

Slow riff:
E|----------------------------------------------------------------------------|
B|------------------5-3--3--5s7--5-3-----------------------------5s7-5--------|
G|-2-0-0--0-4-2-0-0------------------2-4-0----------0-2s4-2-2-2--------0-4----|
D|-----------------------------------------5-4-5-5-----------------------5----|
A|----------------------------------------------------------------------------|
E|----------------------------------------------------------------------------|

Interlude: Em | C (over and over)

arpeggio: G | G | C | G

back to the chords

Outro: (4x)
E|----------------------------------------------------------------------------|
B|----------------------------------------------------------------------------|
G|---------------------5-5-5-5-5-5-5-5-7-7-7-7-7-7-7-7------------------------|
D|--5-5-5-5---5-5-5-5--5-5-5-5-5-5-5-5-7-7-7-7-7-7-7-7------------------------|
A|--5-5-5-5---5-5-5-5--3-3-3-3-3-3-3-3-5-5-5-5-5-5-5-5------------------------|
E|--3-3-3-3---2-2-2-2---------------------------------------------------------|

end on G-power chord
Tap to rate this tab
 
# A B C D E F G H I J K L M N O P Q R S T U V W X Y Z