Song name
# A B C D E F G H I J K L M N O P Q R S T U V W X Y Z

Lucky Boys Confusion - Saturday Night tab

SATURDAY NIGHT - Lucky Boys Confusion


By:Antwan AJdit182@aol.com

Intro
e|---------------------------------------------------------------------------|
B|---------------------------------------------------------------------------|
G|---------------------------------------------------------------------------|
D|---7-------9---11-----12---------------------------------------------------|
A|---5--x5---7-x5-9-x5--10- x5-----------------------------------------------|
E|---------------------------------------------------------------------------|

e|---------------------------------------------------------------------------|
B|---------------------------------------------------------------------------|
G|---------------------------------------------------------------------------|
D|-11-11--9-9--7---------------12-12--11-11-9--------------------------------|
A|--9--9--7-7--5--x3--4th-time-10-10--9--9--7--------------------------------|
E|---------------------------------------------------------------------------|

dont know 1st verse

2nd verse
e|---------------------------------------------------------------------------|
B|---------------------------------------------------------------------------|
G|---------------------------------------------------------------------------|
D|---7-------9---11-----12---------------------------------------------------|
A|---5--x5---7-x5-9-x5--10- x5-----------------------------------------------|
E|---------------------------------------------------------------------------|

dont know chorus

part after "saturday night"
e|---------------------------------------------------------------------------|
B|---------------------------------------------------------------------------|
G|---------------------------------------------------------------------------|
D|---------------------------------------------------------------------------|
A|--7--9--7-9--7--9--7--9----------------------------------------------------|
E|--5--7--5-7--5--7--5--7----------------------------------------------------|

guitar verse 
e|---------------------------------------------------------------------------|
B|---------------------------------------------------------------------------|
G|---------------------------------------------------------------------------|
D|-11-11--9-9--7---------------12-12--11-11-9--------------------------------|
A|--9--9--7-7--5--x3--4th-time-10-10--9--9--7--------------------------------|
E|---------------------------------------------------------------------------|

This is a new LBC track that should be on the next album i made this to a live
track. When it comes out it could be different
Tap to rate this tab
# A B C D E F G H I J K L M N O P Q R S T U V W X Y Z