Guitaretab - guitar tabs
Song name
# A B C D E F G H I J K L M N O P Q R S T U V W X Y Z

Lucky Boys Confusion - Hey Driver tab

-------------------------------------------------------------------------------
			     Hey Driver - Lucky Boys Confusion
-------------------------------------------------------------------------------
Tabbed by: AblinkVboxA a.k.a MyChemicalLife
Email: ablinkvboxa@hotmail.com

Tuning: Standard


This is such a great song and was shocked that no one has tabbed it.
LBC are a great band.. Its werid how they have such awesome songs but arn't so popular.
ANYWAY
I tabbed this by listening to the track on cd only. So if its a bit off well I dont know 
else I can do. But I think its pretty good if you ask me :D

Please send me an e-mail if you have any comment, corrections or questions :D


e|---------------------------------------------------------------------------|
B|---------------------------------------------------------------------------|
G|-----5------5-------------5555------5555----------------5555---------------|
D|--55x3---55x3--------5555-3333-3333-3333-5555-7777-3333-5555---------------|
A|--33x3---33x3--------5555-3333-3333-3333-5555-7777-3333-3333---------------|
E|--33x----33x---------3333------1111------3333-5555-1111--------------------|
                       (SPARKS FLY...

e|---------------------------------------------------------------------------|
B|---------------------------------------------------------------------------|
G|------5555------5555----------------55---5-55-----------5-55---------------|
D|-5555-5555-3333-5555-55555555----55-55-3-5-55---55-77-3-5-55---------------|
A|-5555-3333-3333-3333-55555555----55-33-3-3-33---55-77-3-3-33---------------|
E|-3333------1111------33333333----33----1--------33-55-1--------------------|
                                   (SPARKS FLY...

e|---------------------------------------------------------------------------|
B|---------------------------------------------------------------------------|
G|----55---5-55-----------5-55--------77-777777777---------------------------|
D|-55-55-3-5-55---55-77-3-5-55--33-33-77-777777777---------------------------|
A|-55-33-3-3-33---55-77-3-3-33--33-33-55-555555555---------------------------|
E|-33----1--------33-55-1-------11-11----------------------------------------|
[ Tab from: http://www.guitaretab.com/l/lucky-boys-confusion/131170.html ]
e|---------------------------------------------------------------------------|
B|---------------------------------------------------------------------------|
G|---------------------------------------------------------------------------|
D|-5-----------------------------5-------------------------------------------|
A|-5-------------3-3-3-3-5-5-5-5-5-------------3-3-3-3-5-5-5-5---------------|
E|-3-3-3-3-3-3-3-----------------3-3-3-3-3-3-3-------------------------------|
     . . . . . . . . . . . . . .   . . . . . . . . . . . . . .
  (WEST BOUND)
e|---------------------------------------------------------------------------|
B|---------------------------------------------------------------------------|
G|------------------------------------------------------------55----5-55-----|
D|-5-----------------------------5-----------5--555555555--55-55-33-5-55-----|
A|-5-------------3-3-3-3-5-5-5-5-5-----------5--555555555--55-33-33-3-33-----|
E|-3-3-3-3-3-3-3-----------------3-3-3-3-3-3-3--333333333--33----11----------|
     . . . . . . . . . . . . . .   . . . . .               (DARK SKYS....)
e|---------------------------------------------------------------------------|
B|---------------------------------------------------------------------------|
G|----------5-55-----55----5-55-----------5-55--------77-777777777-----------|
D|-55-77-33-5-55--55-55-33-5-55--55-77-33-5-55--33-33-77-777777777-----------|
A|-55-77-33-3-33--55-33-33-3-33--55-77-33-3-33--33-33-55-555555555-----------|
E|-33-55-11-------33----11-------33-55-11-------11-11------------------------|

e|---------------------------------------------------------------------------|
B|---------------------------------------------------------------------------|
G|---------------------------------------------------------------------------|
D|-5-----------------------------5-------------------------------------------|
A|-5-------------3-3-3-3-5-5-5-5-5-------------3-3-3-3-5-5-5-5---------------|
E|-3-3-3-3-3-3-3-----------------3-3-3-3-3-3-3-------------------------------|
     . . . . . . . . . . . . . .   . . . . . . . . . . . . . .
  (WEST BOUND...)
e|---------------------------------------------------------------------------|
B|---------------------------------------------------------------------------|
G|---------------------------------------------------------------------------|
D|-5-----------------------------5-----------5---555555555-------------------|
A|-5-------------3-3-3-3-5-5-5-5-5-----------5---555555555-------------------|
E|-3-3-3-3-3-3-3-----------------3-3-3-3-3-3-3---333333333-------------------|
     . . . . . . . . . . . . . .   . . . . .
e|---------------------------------------------------------------------------|
B|---------------------------------------------------------------------------|
G|-------55x77x77----------555x777-------55x77x77----------------------------|
D|-5xx5x-55x77x77-5xx5x55x-555x777-5xx5x-55x77x77-5xx5x55--555555555555------|
A|-5xx5x-33x55x55-5xx5x55x-333x555-5xx5x-33x55x55-5xx5x55--555555555555------|
E|-3xx3x----------3xx3x33x---------3xx3x----------3xx3x33--333333333333------|

  (WEST BOUND...)
e|-----------------------------------------------------------------|-(wait)---|
B|-----------------------------------------------------------------|----------|
G|-55555555555555----------------555555555-77777-5555555----2~-----|----------|
D|-55555555555555-55555555555555-555555555-77777-5555555-3~-2~-5~--|---5------|
A|-33333333333333-55555555555555-333333333-55555-3333333-3~-0~-5~--|---5------|
E|----------------33333333333333-------------------------1~----3~--|---3------|

  (SOLO-ish part - not big on solos.. do I did rythem..its a bit off :P )
e|----------------------------------------------------------------------------|
B|----------------------------------------------------------------------------|
G|------------------------------------5555------5555--------------------------|
D|-5~----55~----5~----555555555--5555-5555-3333-5555--(x8)---END-ON--5~-------|
A|-5~----55~----3~----555555555--5555-3333-3333-3333-----------------5~-------|
E|-3~----33~----3~----333333333--3333------1111----------------------3~-------|

                      (HEY DRIVER TO THE TOP OF THE WORLD....)


ENJOY!

| /  slide up
| \  slide down
| h  hammer-on
| p  pull-off
| ~  vibrato
| +  harmonic
| x  Mute note
===============================================================================
Related for Hey Driver tab
Advertisement will be closed in 10 seconds