Guitaretab - guitar tabs
Song name
# A B C D E F G H I J K L M N O P Q R S T U V W X Y Z

Lucky Boys Confusion - Beware tab

I wanted to learn this song for a while and it wasn't here so I thought i'd tab it. It's 
95% correct.

Legend:

~ = Let It Ring
X = Mute
/ = Slide Up
\ = Slide Down
- = PM

Intro: 4x (Strummed 4 times)  After:
e|-----------------------------------------------------------------------------|
B|-----------------------------------------------------------------------------|
G|-----------------------------------------------------------------------------|
D|----------7------------------------7-----------------------------------------|
A|----------5--5--7--9---------------5~~~--------------------------------------|
E|--3/12\3-----3--5--7---------------------------------------------------------|

Verse:
e|-----------------------------------------------------------------------------|
B|-----------------------------------------------------------------------------|
G|-----------------------------------------------------------------------------|
D|-7-7-7-----------------------------------------------------------------------|
A|-5-5-5--5-5-5--7-7-7--9-9-9--------------------------------------------------|
E|--------3-3-3--5-5-5--7-7-7--------------------------------------------------|
PM - -    - -    - -    - -

Fill:
e|-----------------------------------------------------------------------------|
B|-----------------------------------------------------------------------------|
G|-----------------------------------------------------------------------------|
D|-----------------------------------------------------------------------------|
A|--5--------------------------------------------------------------------------|
E|-----75\3-------------------------------------------------------------------|

Pre-Chorus: (Strummed 4 times)
e|-----------------------------------------------------------------------------|
B|-----------------------------------------------------------------------------|
G|-----------------------------------------------------------------------------|
D|-----------------------9-----------------------------------------------------|
A|--5--2--5--2--5--2--5--7-----------------------------------------------------|
E|--3--0--3--0--3--0--3--------------------------------------------------------|

[ Tab from: http://www.guitaretab.com/l/lucky-boys-confusion/158092.html ]
Chorus: 4x (Strummed 4 times)  After:
e|-----------------------------------------------------------------------------|
B|-----------------------------------------------------------------------------|
G|-----------------------------------------------------------------------------|
D|-7---------------------------------7\----------------------------------------|
A|-5--5--7--9------------------------5\----------------------------------------|
E|----3--5--7------------------------------------------------------------------|
Pre-Bridge x8
e|-----------------------------------------------------------------------------|
B|-----------------------------------------------------------------------------|
G|-----------------------------------------------------------------------------|
D|--5--------------------------------------------------------------------------|
A|--x--------------------------------------------------------------------------|
E|--3--------------------------------------------------------------------------|
Bridge:
Guitar 1 x4
e|-----------------------------------------------------------------------------|
B|-----------------------------------------------------------------------------|
G|-----------------------------------------------------------------------------|
D|--7--------------------------------------------------------------------------|
A|--5-5x5---------------------------------------------------------------------|
E|-----3x3---------------------------------------------------------------------|

Guitar 2 (Solo)
e|------------|--------------|-----------|--------|----------------------------|
B|------------|--------------|-----------|--------|----------------------------|
G|--7--11-14--|--11-14--11-7-|--14--6--7-|--9--12-|----------------------------|
D|--x--x--x---|--x--x---x--x-|--x---x--x-|--x--x--|----------------------------|
A|--5--9--12--|--9--12--9--5-|--12--4--5-|--7--10-|----------------------------|
E|------------|--------------|-----------|--------|----------------------------|

Structure:

Intro
Verse
Pre-Chorus
Chorus
Verse
Pre-Chorus
Chorus
Pre-Bridge
Bridge/Solo
Bass Breakdown
Chorus

Lyrics:

Cut the engine when I'm all revved up
Pull the rug beneath my feet
Pull the trigger when I'm all wound up
Then you turn your back on me
Then you say that I'm talking too much
but I'm just talking to my self
And whether you like it or not you'll never ask for help

Chorus
Breathing for you
Can't be all in my head
Changing scares you
This is all in your head
Beware I swear I will be waiting there (2x)

Draw the battlelines and back me down
to the corner with such ease
Turn the knife til I'm so worked up
all I do is aim to please
The power balance is now upside down
with a sudden change of gears
Every single word is now washed up
with your crocodile tears

Chorus

GO!

The setting sun crumbles in the distance
Feeble words meeting new resistance
Tired games, do they make a difference
Tired games, tired games

Beware I swear I will be waiting there (4x)
Related for Beware tab