Song name
# A B C D E F G H I J K L M N O P Q R S T U V W X Y Z

Lucky Boys Confusion - Blood Drops tab

e--------------8-10-8-8-----------------------------------------------|
B-10-10-10-11-------------10-10---------------------------------------|
G--------------------------------9h10---------------------------------|
D---------------------------------------------------------------------|
A---------------------------------------------------------------------|
E---------------------------------------------------------------------|

e---------------------------------------------------------------------|
B----------8h10-13-13-10-10h11-10-8-8-8-11-10h11p10-8-----------------|
G-10-12------------------------------------------------10-------------|
D---------------------------------------------------------------------|
A---------------------------------------------------------------------|
E---------------------------------------------------------------------|

e---------------------------------------------------------------------|
B---------------------------------------------------------------------|
G------------------------------10-10-10-10-10-10-10-9-----------------|
D-10h12-12--10h12-10------10------------------------------------------|
A---------------------12----------------------------------------------|
E---------------------------------------------------------------------|

e---------------------------------------------------------------------|
B---------------------------------------------------------------------|
G-9/12--12/15--15-15-14-14h15-14-12-10-5-5/7--------------------------|
D---------------------------------------------------------------------|
A---------------------------------------------------------------------|
E---------------------------------------------------------------------|

e------------------------------------------------------/15-13-13------|
B---------------------------------------------/13-11------------------|
G-7-5-5h7-5-----7-5-5h7-5-----7-5-7--/12-10---------------------------|
D------------7-------------7------------------------------------------|
A---------------------------------------------------------------------|
E---------------------------------------------------------------------|

Tap to rate this tab
# A B C D E F G H I J K L M N O P Q R S T U V W X Y Z