Song name
# A B C D E F G H I J K L M N O P Q R S T U V W X Y Z

Lucky Boys Confusion - Slip tab

-------------------------------------------------------------------------------
			     Slip - Lucky Boys Confusion
-------------------------------------------------------------------------------
Tabbed by:
Email:

Tuning:EADGBe
  Intro
e|-----------------------------------------------------------------------------|
B|-----------------------------------------------------------------------------|
G|-----------7----------------7---------------7----------6--------4h6----------|
D|---------------7---------------7---------------------------------------------|
A|-----------------------------------------------------------------------------|
E|-----7-----------------7----------------7---7----------5--------5------------|


e|-----------------------------------------------------------------------------|
B|-----------------------------------------------------------------------------|
G|------6-------4-------------7-----------6---------4h6------6--------9--------|
D|-----------------------------------------------------------------------------|
A|-----------------------------------------------------------------------------|
E|------5-------3---------7---7-----------5---------5--------5--------9--------|


e|-----------------------------------------------------------------------------|
B|-----------------------------------------------------------------------------|
G|----------7--------6-------4h6-----6------4----------------------------------|
D|-----------------------------------------------------------------------------|
A|----------------------------------------------7p5--4--0--2--7p5--4--0--2-----|
E|------7---7--------5-------5-------5------3---5-------------5----------------|


e|-----------------------------------------------------------------------------|
B|-----------------------------------------------------------------------------|
G|----------7------6------4h6------6-------4------------7---------6------------|
D|-----------------------------------------------------------------------------|
A|-----------------------------------------------------------------------------|
E|------7---7------5------5--------5-------3--------7---7---------5------------|


e|-----------------------------------------------------------------------------|
B|-----------------------------------------------------------------------------|
G|------4h6-----6------9------------7-------6------4h6-------6--------4--------|
 |
D|-----------------------------------------------------------------------------|
A|-----------------------------------------------------------------------------|
E|------5-------5------9--------7---7-------5------5---------5--------3--------|


e|-----------------------------------------------------------------------------|
B|--------------------------------------------------------8-----0--------------|
G|--------------------------------------------------6----------6---------------|
D|--------------------------------------------------7----------7---------------|
A|------7p5--4--0--2--7p5--4--0--2--7p5--4--0--2----7----------7---------------|
E|------5-------------5-------------5---------------5----------5---------------|


| /  slide up
| \  slide down
| h  hammer-on
| p  pull-off
| ~  vibrato
| +  harmonic
| x  Mute note
===============================================================================
Tap to rate this tab
 
# A B C D E F G H I J K L M N O P Q R S T U V W X Y Z