Song name
# A B C D E F G H I J K L M N O P Q R S T U V W X Y Z

Lucky Boys Confusion - Do You Miss Me tab

DO YOU MISS ME (Killians) - Lucky Boys Confusion


By:Andy	AJdit182@aol.com

this is the new version
verse x2
e|---------------------------------------------------------------------------|
B|---------------------------------------------------------------------------|
G|---------------------------------------------------------------------------|
D|----------------55555------------------------5555555555--------------------|
A|--33333-55555---33333--77777----33333-55555--3333333333--------------------|
E|--11111-33333----------55555----11111-33333--------------------------------|

"do you miss me" verse
e|---------------------------------------------------------------------------|
B|---------------------------------------------------------------------------|
G|---------------------------------------------------------------------------|
D|---------------------------------------------------------------------------|
A|---7-play that a bunch of times--------------------------------------------|
E|---5-----------------------------------------------------------------------|

next verse that sounds pretty rightish
e|---------------------------------------------------------------------------|
B|---------------------------------------------------------------------------|
G|---------------------------------------------------------------------------|
D|--3----5-------------------------------------------------------------------|
A|--1-3--3-5-----------------------------------------------------------------|
E|----1----3-----------------------------------------------------------------|

verse x2
e|---------------------------------------------------------------------------|
B|---------------------------------------------------------------------------|
G|---------------------------------------------------------------------------|
D|----------------55555------------------------5555555555--------------------|
A|--33333-55555---33333--77777----33333-55555--3333333333--------------------|
E|--11111-33333----------55555----11111-33333--------------------------------|

"do you miss me" verse
e|---------------------------------------------------------------------------|
B|---------------------------------------------------------------------------|
G|---------------------------------------------------------------------------|
D|---------------------------------------------------------------------------|
A|---7-play that a bunch of times--------------------------------------------|
E|---5-----------------------------------------------------------------------|

new verse bass at first then its guitar
e|---------------------------------------------------------------------------|
B|---------------------------------------------------------------------------|
G|---------------------------------------------------------------------------|
D|--3----5-------------------------------------------------------------------|
A|--1-3--3-5-----------------------------------------------------------------|
E|----1----3-----------------------------------------------------------------|

verse x2
e|---------------------------------------------------------------------------|
B|---------------------------------------------------------------------------|
G|---------------------------------------------------------------------------|
D|----------------55555------------------------5555555555--------------------|
A|--33333-55555---33333--77777----33333-55555--3333333333--------------------|
E|--11111-33333----------55555----11111-33333--------------------------------|

long gap with not much guitar

then this till end verse x2
e|---------------------------------------------------------------------------|
B|---------------------------------------------------------------------------|
G|---------------------------------------------------------------------------|
D|----------------55555------------------------5555555555--------------------|
A|--33333-55555---33333--77777----33333-55555--3333333333--------------------|
E|--11111-33333----------55555----11111-33333--------------------------------|

thats it... the new version
Tap to rate this tab
# A B C D E F G H I J K L M N O P Q R S T U V W X Y Z