Song name
# A B C D E F G H I J K L M N O P Q R S T U V W X Y Z

Lucky Boys Confusion - Atari tab

Intro

e---------------------------------------------------|
b---------------------------------------------------|
g----7-7--------------------------------------------|
d-5--7-7--9-9--7-7----------------------------------|
a-5--5-5--9-9--7-7----------------------------------|   X5
E-3-------7-7--5-5----------------------------------|

Verses

PALM MUTE THE WHOLE VERSE

e-----------------------------------------------------------------------|
b-----------------------------------------------------------------------|
g----------77777777-----------------------------------------------------|
d-55555555-77777777-99999999-77777777-----------------------------------|
a-55555555-55555555-99999999-77777777-----------------------------------|       X4
E-33333333----------77777777-55555555-----------------------------------|

Chorus

e-----------------------------------------------------------|
b-----------------------------------------------------------|
g-----7-7---------------------------------------------------|
d-5---7-7--9-9--7-7-----------------------------------------|
a-5---5-5--9-9--7-7-----------------------------------------|        X3
E-3--------7-7--5-5-----------------------------------------|

Thats It!

Progression:

Intro
Verse
Chorus
Verse
Chorus
Chorus
Bridge(I cant't distinguish that part try another tab for that)
Solo(Play Chorus Behind this)
Chorus(Palm Mute)
Chorus
Chorus
Tap to rate this tab
# A B C D E F G H I J K L M N O P Q R S T U V W X Y Z