Song name
# A B C D E F G H I J K L M N O P Q R S T U V W X Y Z

Lucky Boys Confusion - Mr Wilmington tab

This is my first tab so go easy on me


Intro

e------------------------------------------------------------------------------------|
B------------------------------------------------------------------------------------|
G-----------------------------------9-9-9----7-7-7—5-5-5-5-5-5-----------------------|
D ----------------------------------7-7-7----5-5-5—3-3-3-3-3-3-----------------------|
A---3-3-3-3-3-3--9-9-9-9-9-9---------------------------------------------------------|
E---5-5-5-5-5-5--7-7-7-7-7-7---------------------------------------------------------|


Verse

e------------------------------------------------------------------|
B------------------------------------------------------------------|
G------------------9~ -----7~ -----5~ -----------------------------|
D -----------------7~ -----5~ -----3~ -----------------------------|
A—5~ ----9~ -------------------------------------------------------|
E—3~ ----7~--------------------------------------------------------|

Pre-Chorus
e------------------------------------------------------------------|
B------------------------------------------------------------------|
G------------------------------------------------------------------|
D -------------------9-9-9----7-7-7—5-5-5-5-5-5--------------------|
A--5~ ----9~ ------7-7-7----5-5-5—3-3-3-3-3-3----------------------|
E--3~ ----7~ ------------------------------------------------------|

Chorus


e------------------------------------------------------------------------------------|
B------------------------------------------------------------------------------------|
G-----------------------------------9-9-9----7-7-7—5-5-5-5-5-5-----------------------|
D ----------------------------------7-7-7----5-5-5—3-3-3-3-3-3-----------------------|
A---3-3-3-3-3-3--9-9-9-9-9-9---------------------------------------------------------|
E---5-5-5-5-5-5--7-7-7-7-7-7---------------------------------------------------------|

ORDER–
Intro x2
Verse x 3
Pre-Chorus x1
Chorus x2
Verse x1
Pre-Chorus x3
Chorus x3
Verse x1
Pre-Chorus x1
Verse x1
Chorus x3


Im Out.....DaStu19 4EVER..WOOOOOOOOOOO
Tap to rate this tab
 
# A B C D E F G H I J K L M N O P Q R S T U V W X Y Z