Guitaretab - guitar tabs
Song name
# A B C D E F G H I J K L M N O P Q R S T U V W X Y Z

Lucky Boys Confusion - Commitment tab

Intro (2x)
e|------------------|
G|------------------|
B|--7-7-7-7-7-7-73--|
D|--7-7-7-7-7-7-73--|
A|--5-5-5-5-5-5-51--|
E|------------------|

First Verse
e|-----|
G|-----|
B|--7--|
D|--7--|
A|--5--|
E|-----|

Pre-Chorus
e|--------|
G|--------|
B|--2--2--|
D|--2--2--|
A|--0--0--|
E|--------|

Chorus (2x)
e|---------------|
G|---------------|
B|--7-2-9-77-22--|
D|--7-2-9-77-22--|
A|--5-0-7-55-00--|
E|---------------|

Second Verse
e|-------|
G|-------|
B|--7-7--|
D|--7-7--|
A|--5-5--|
E|-------|

Pre-Chorus
e|--------|
G|--------|
B|--2--2--|
D|--2--2--|
A|--0--0--|
E|--------|

Chorus (4x)      After 4th Time
e|---------------|-----------|
G|---------------|-----------|
B|--7-2-9-77-22--|--9-77-22--|
D|--7-2-9-77-22--|--9-77-22--|
A|--5-0-7-55-00--|--7-55-00--|
E|---------------|-----------|
[ Tab from: http://www.guitaretab.com/l/lucky-boys-confusion/76188.html ]
Interlude Guitar 1 (4x)
e|-------------------|
G|-------------------|
B|--7-7-7-7-8-8-8-8--|
D|--7-7-7-7-8-8-8-8--|
A|--5-5-5-5-6-6-6-6--|
E|-------------------|

Interlude Guitar 2 (2x)
e|-----------------------------------------|
G|--10-10-10-10-11-15-11-10-10-10-10-11-8--|
B|-----------------------------------------|
D|-----------------------------------------|
A|-----------------------------------------|
E|-----------------------------------------|

Third Verse
e|-----------------------------------|
G|-----------------------------------|
B|--7-7-7-8-12-8-7-7-7-8-12-8--7777--|
D|--7-7----------7-7-----------7777--|
A|--5-5----------5-5-----------5555--|
E|-----------------------------------|

Chorus (4x)      After 4th Time (3x)
e|---------------|-----------|
G|---------------|-----------|
B|--7-2-9-77-22--|--9-77-22--|
D|--7-2-9-77-22--|--9-77-22--|
A|--5-0-7-55-00--|--7-55-00--|
E|---------------|-----------|

Outro
e|------------------|
G|------------------|
B|--7-7-7-7-7-7-73--|
D|--7-7-7-7-7-7-73--|
A|--5-5-5-5-5-5-51--|
E|------------------|

That's it.. not to hard, hope it's all right.  AIM is Millhouse17 with questions or concerns.
Related for Commitment tab
Advertisement will be closed in 10 seconds