Song name
# A B C D E F G H I J K L M N O P Q R S T U V W X Y Z

Lucy Kaplansky - Tide tab

----------------------------------------------------------------------------
			     The Tide - Spill Canvas
----------------------------------------------------------------------------
Tabbed by: James Brown
Email:jivejames67119@yahoo.com

Tuning: Standard

I think this is way closer than any other tab on here. I'm missing a couple small pieces
and there. I play the fill/bridge thing differently than what it probably is but it's
easier to play and sounds pretty close. I just gave the chords instead of tabbing the 
or amount or anything.


INTRO/VERSE

e|-----------------x-x-x-x------|
B|-----------------x-x-x-x------|
G|-----------------x-x-x-x------|
D|--------7--7-7\--x-x-x-x------|
A|--------7--7-7\--x-x-x-x------|
E|---0-2-----------x-x-x-x------|

e|--7--5--------|
B|--7--7--------|
G|--9--6--------|
D|--9--7--------|
A|--7--5--------|
E|--------------|

FILL/BRIDGE

e|-----------------------------|
B|-----------------------------|
G|-----------------------------|
D|---0h2p2--4p2p0--6p4p0--7----|
A|-----------------------------|
E|-----------------------------|

CHORUS

e|---------------------------------------------------------------------|
B|---------------------------------------------------------------------|
G|--9-9-9-9-9-9-9/-11-11-11-11-11-11\6-6-6-6-6-6-----------------------|
D|--9-9-9-9-9-9-9/-11-11-11-11-11-11\6-6-6-6-6-6--7-7-7-7--6-6-6-6-----|
A|--7-7-7-7-7-7-7/-9--9--9--9--9--9-\4-4-4-4-4-4--7-7-7-7--6-6-6-6-----|
E|------------------------------------------------5-5-5-5--4-4-4-4-----|

e|-----------------------------------------|
B|-----------------------------------------|
G|--7-7-x-x-x-x-7-7-x-x-x-x----------------|
D|--7-7-x-x-x-x-7-7-x-x-x-x----------------|
A|--5-5-x-x-x-x-5-5-x-x-x-x----------------|
E|-----------------------------------------|


e|------------------------------------------------------------------------|
B|------------------------------------------------------------------------|
G|--11-11-11-11-11-11-11-11-11-11-11-11-11\6-6-6-6-6-6--------------------|
D|--11-11-11-11-11-11-11-11-11-11-11-11-11\6-6-6-6-6-6--7-7-7-7--6-6-6-6--|
A|--9--9--9--9--9--9--9--9--9--9--9--9--9-\4-4-4-4-4-4--7-7-7-7--6-6-6-6--|
E|------------------------------------------------------5-5-5-5--4-4-4-4--|

e|-----------------------------------------|
B|-----------------------------------------|
G|--7-7-x-x-x-x-7-7-x-x-x-x----------------|
D|--7-7-x-x-x-x-7-7-x-x-x-x----------------|
A|--5-5-x-x-x-x-5-5-x-x-x-x----------------|
E|-----------------------------------------|


| /  slide up
| \  slide down
| h  hammer-on
| p  pull-off
| ~  vibrato
| +  harmonic
| x  Mute note
============================================================================
Tap to rate this tab
# A B C D E F G H I J K L M N O P Q R S T U V W X Y Z