Song name
# A B C D E F G H I J K L M N O P Q R S T U V W X Y Z

Lucy Rose - Night Bus tab

-------------------------------------------------------------------------------
			     Night Bus - Lucy Rose
-------------------------------------------------------------------------------
Tabbed by: Alex Kuebel
Email    : Akuebel@yahoo.com

Tuning: Standard

This is a super easy song. If anybody wants and I've got time,
I'll do the second guitar from WLT.



e|-------------------------------------||
B|-------------------------------------||
G|----------9------9-----9-----9-------||  Intro x8
D|----------9------9-----9-----9-------||
A|-------7-----7------7-----7----------||
E|-------------------------------------||
         E5


			    x2 (Intro) then 4x (Verse)
e|-------------------------------------|-------------------------------------|
B|-------------------------------------|-------------------------------------|
G|----------9------9-----9-----9-------|---------9-----9------9-----9--------|
D|----------9------9-----9-----9-------|---------9-----9------9-----9--------|
A|-------7-----7------7-----7----------|-------9-----9-----9-----9-----------|
E|-------------------------------------|-------------------------------------|        
         E5                                    Esus2
 |-------------------------------------|------------------------------------||
 |-------------------------------------|------------------------------------||
 |----------9-----9-----9-------9------|---------9-----9------9-----9-------||
 |----------9-----9-----9-------9------|---------9-----9------9-----9-------||
 |-------------------------------------|-------0-----0------0-----0---------||
 |-------9------9-----9------9---------|------------------------------------||
	 C#m7                                  Esus4		   




e|------------------------------------||
B|------------------------------------||
G|--------9------9-------9-------9----|| Pre-Chorus
D|--------9------9-------9-------9----||
A|-----0-------0------0-------0-------||
E|------------------------------------||
       Esus4

				    


				     Chorus
e|-------------------------------------|-------------------------------------|
B|-------------------------------------|-------------------------------------|
G|----------9------9-----9-----9-------|---------9-----9------9-----9--------|
D|----------9------9-----9-----9-------|---------9-----9------9-----9--------|
A|-------7-----7------7-----7----------|-------9-----9-----9-----9-----------|
E|-------------------------------------|-------------------------------------|        
         E5                                    Esus2
                                           
                                           |------------First-Ending---------|       
 |-------------------------------------|------------------------------------ |
 |-------------------------------------|------------------------------------ |
 |----------9-----9-----9-------9------|---------9-----9------9-----9-------:|
 |----------9-----9-----9-------9------|---------9-----9------9-----9-------:|
 |-------------------------------------|------------------------------------ |
 |-------9------9-----9------9---------|-------9-----9------9-----9--------- |
	 C#m7			       |       C#m7
                                      e|------------------------------------||
                                      B|------------------------------------||
                                      G|---------9-----9------9-----9-------||
                                      D|---------9-----9------9-----9-------||
		                      A|------------------------------------||
                                      E|-------7-----7------7-----7---------||
                                               E5/B
                                            |-----------Second-Ending--------|
NOTE: On second and third Chorus, play
first ending through twice before 
playing into the second ending.
				    
                                    Interlude
e|-------------------------------------|-------------------------------------|
B|----------------5--------------------|----------------5--------------------|
G|----------------6--------------------|----------------6--------------------|
D|----------7----------7---------------|----------7----------7---------------|
A|-----7-------------------7--------7--|-----7-------------------7-------7---|
E|-5---------------------------5-------|-5---------------------------5-------|
   A                                     A
                                                      
						      |-Strum, hold 2 beats--| 
e|-------------------------------------|------------------0------------------|
B|----------------0--------------------|------------------0------------------|
G|----------------6--------------------|------------------6------------------|
D|-----------7---------7---------------|------------7------------------------|
A|------7------------------7--------7--|-------7-----------------------------|
E|-5---------------------------5-------|---5---------------------------------|
   Aadd2                                   Aadd2

NOTE: I changed the interlude slightly, Lucy uses about the same picking pattern,
but uses the 6,4,3,2,1 strings, instead of 6,5,4,3,2, and stays on A, 
without switching to Aadd2.
                                    
                                     Bridge
e|-------------------------------------|-------------------------------------|
B|-------------------------------------|-------------------------------------|
G|-----9-------9------9-------9--------|------9-------9------9-------9-------|X3
D|-----9-------9------9-------9---X4---|------9-------9------9-------9--X4---|
A|---7-------7------7-------7----------|-------------------------------------|
E|-------------------------------------|----9-------9------9-------9---------|
     E5                                    C#m7
                                 Bridge Outro
e|-------------------------------------|-------------------------------------|
B|-------------------------------------|-------------------------------------|
G|-----9-------9------9-------9--------|------9-------9------9-------9-------|
D|-----9-------9------9-------9---X4---|------9-------9------9-------9--X4---|
A|---7-------7------7-------7----------|----0-------0------0-------0---------|
E|-------------------------------------|-------------------------------------|
     E5                                     Esus4
				Interlude/outro
          
The outro is just the interlude repeated, and the song ends with a strummed A chord, 
or if you used my variation, Aadd2. 
                                     

************************************
Intro
Intro/Verse
Chorus
Interlude
Verse
Chorus (with extra first ending)
Interlude
Bridge
Chorus (With extra first ending)
Interlude/Outro (Interlude x2 plus strum)
************************************
Tap to rate this tab
# A B C D E F G H I J K L M N O P Q R S T U V W X Y Z