Song name
# A B C D E F G H I J K L M N O P Q R S T U V W X Y Z

Lucy Rose - Middle Of The Bed tab

TUNING: DADF#Bd

This is tabbed according to her live performances. For rhythm references I would suggest 
you watch videos as it's a bit tricky.

INTRO:

d------------------------------------   ---------------------------0---------|
b-----0----0--------0------0---------   ---------0--------0--------0---------|
f#----0----0--------0------0--------- x2 --------0--------0--------0---------|
d-----0----0--------0------0---------   ---------0--------0--------0---------|
a--------9-----7-------5-------------   ---2---------5-------------5---------|
D---9-------------7-------5----------   ------2--------5-----5-----5---------|

VERSE

I sleep...

d------------------------------------|
b-----0----0--------0------0---------|
f#----0----0--------0------0---------|
d-----0----0--------0------0---------|
a--------9-----7-------5-------------|
D---9-------------7-------5----------|

Do you really want me back...

d--------------------------------------------------0---------|
b---------0---0---0----0-------0--------0---0------0---------|
f#--------0---0---0----0-------0--------0---0------0---------|
d---------0---0---0----0-------0--------0---0------0---------|
a---2-------2--2----2----5------------5------------5---------|
D------2---------2----------5----------------------5---------|

CHORUS
I'm over it, over you
d------------------------------------------------------------------------|
b-----0----0--------0------0---------0--------0--------0-----------------|
f#----0----0--------0------0---------0--------0--------0-----------------|
d-----0----0--------0------0---------0--------0--------0-----------------|
a-9------9-----12-------12-----5----------5---------5--------------------|
D---9-------------12---------------5---------5--------5------------------|


BRIDGE

(Not sure about this part, still a bit finicky)

It's all over the town...
d-----------------------------------------------------------------|
b------7-------0------7-----0-------------------------------------|
f#-----8-------10-----8-----5-------------------------------------| x2
d------0-------0------0-----0-------------------------------------|
a-----------------------------------------------------------------|
D-----------------------------------------------------------------|

If you knew me at all..
d---------------------------------   --------------|
b----0-----0----0----0-----------   ---------0-----|
f#--12-----7----0----5----------- x2 --------0-----|
d----0-----0----0----0-----------   ---------0-----|
a---------------------------------   --------5-----|
D---12-----7----9----5-------------   -------5-----|


That's pretty much all there is to it, if anyone knows how to fix the bridge let me know!
Tap to rate this tab
# A B C D E F G H I J K L M N O P Q R S T U V W X Y Z