Song name
# A B C D E F G H I J K L M N O P Q R S T U V W X Y Z

Lucy Rose - Middle Of The Bed tab

-----------------------------------------------------------------------------
			     Middle of the Bed - Lucy rose
-----------------------------------------------------------------------------
Tabbed by: Shakin' not Stirred
Email:klaasvandeloock@hotmail.com

Hello everyone. Just want it to play this and found no tap, so... :p
My tab is based on this (http://youtu.be/epwFxDPM0Jc) video.
I know it's not 100% correct, but I think it is pretty close..

IMPORTANT:
 
AFTER EVERY 
F#|-0-|
D |-0-|
THERE'S A SLAP!!!!! 
(I didn't write this on the tab because of the readability)

 
Tuning:
d
B
F#
D
B
E

INTRO
d |---------------------------------------------|
B |---------------------------------------------|
F#|--0---0-----0-----0-----0---0-----0-----0----|
D |--0---0-----0-----0-----0---0-----0-----0----| 
B |----7~--------------------7~-----------------|
E |-7-------7\5---5\3---5-7-------7\5---5\3---5-|

d |------------------------------0---|
B |------------------------------0---|
F#|--0---0---0---0------0---0----0---|
D |--0---0---0---0------0---0----0---|
B |-----0-------0---0h/3---3-----3---|
E |-0-------0------------------3-3---|

VERSE 1(I sleep...)
d |---------------------------------------------|
B |---------------------------------------------|
F#|--0---0-----0-----0-----0---0-----0-----0----|
D |--0---0-----0-----0-----0---0-----0-----0----| 2x
B |----7~--------------------7~-----------------|
E |-7-------7\5---5\3---5-7-------7\5---5\3---5-|

(Do you really want me to...)
d |----------------------------------0---|
B |----------------------------------0---|
F#|--0----0----0----0------0----0----0---|
D |--0----0----0----0------0----0----0---|
B |-----0-----0---0----0h/3----3-----3---|
E |-0----0---0-----0----------3----3-3---|

CHORUS (Cause I'm over you...)
d |--------------------------------------------|(You can also skip this part,
B |--------------------------------------------| and play the next part 3x
F#|--0----0-----0----0-----0----0----0----0----| instead of 1x (See next 2
D |--0----0-----0----0-----0----0----0----0----| choruses))
B |-----7----------3----------3-----3---3------| 2x
E |-7----7---7-5----5---5-3----3---3-----3---3-|

(I love you yeah...)
d |------------------------------------------------|
B |------------------------------------------------|
F#|--0----0------0------0------0----0----0----0----|
D |--0----0------0------0------0----0----0----0----| 
B |-----7-----------10------------3-----3---3------| 
E |-7----7---7-10-----10---10-3----3---3-----3---3-|

d |--------------------------------------0---|
B |--------------------------------------0---|
F#|--0----0------0------0------0----0----0---|
D |--0----0------0------0------0----0----0---|
B |-----7-----------10------------3------3---|
E |-7----7---7-10-----10---10-3----3---3-3---|

VERSE 2 (I talk...)
d |---------------------------------------------|
B |---------------------------------------------|
F#|--0---0-----0-----0-----0---0-----0-----0----|
D |--0---0-----0-----0-----0---0-----0-----0----| 2x
B |----7~--------------------7~-----------------|
E |-7-------7\5---5\3---5-7-------7\5---5\3---5-|

(Do you really want me back...)
d |----------------------------------0---|
B |----------------------------------0---|
F#|--0----0----0----0------0----0----0---|
D |--0----0----0----0------0----0----0---|
B |-----0-----0---0----0h/3----3-----3---|
E |-0----0---0-----0----------3----3-3---|

CHORUS (Cause I'm over you...)
d |------------------------------------------------|
B |------------------------------------------------|
F#|--0----0------0------0------0----0----0----0----|
D |--0----0------0------0------0----0----0----0----| 3x
B |-----7-----------10------------3-----3---3------|
E |-7----7---7-10-----10---10-3----3---3-----3---3-|

d |--------------------------------------0---|
B |--------------------------------------0---|
F#|--0----0------0------0------0----0----0---|
D |--0----0------0------0------0----0----0---|
B |-----7-----------10------------3------3---|
E |-7----7---7-10-----10---10-3----3---3-3---|

BRIDGE (LISTEN to what she does! (I won't be counting :))
(It's all over the...
d |-----|
B |--0--|
F#|--5--| a few times (a kind of intro to the actual bridge)
D |--0--|
B |-----|
E |-----|

...town....)
d |------|     |-----|     |-----|     |-----|
B |--0---|     |--0--|     |--0--|     |--0--|
F#|--12--|     |--7--|     |--8--|     |--3--|
D |--0---|x... |--0--|x... |--0--|x... |--0--|x... (play these 4 pieces
B |------|     |-----|     |-----|     |-----|      2 times)
E |------|     |-----|     |-----|     |-----|

(...at all...)--> ADD BASS NOTES
d |------|     |-----|     |-----|     |-----|
B |--0---|     |--0--|     |--0--|     |--0--|
F#|--12--|     |--7--|     |--8--|     |--3--|
D |--0---|x... |--0--|x... |--0--|x... |--0--|x... (play these 4 pieces
B |------|     |-----|     |-----|     |-----|      5 times
E |--10--|     |--5--|     |--7--|     |--3--|

d |------|     |-----|     |-----|  
B |--0---|     |--0--|     |--0--| 
F#|--12--|     |--7--|     |--8--|  
D |--0---|x... |--0--|x... |--0--| (this is the last time)
B |------|     |-----|     |-----|     
E |--10--|     |--5--|     |--7--| 

CHORUS (They say I love you yeah...)
d |------------------------------------------------|
B |------------------------------------------------|
F#|--0----0------0------0------0----0----0----0----|
D |--0----0------0------0------0----0----0----0----| 3x
B |-----7-----------10------------3-----3---3------|
E |-7----7---7-10-----10---10-3----3---3-----3---3-|

d |--------------------------------------0---|
B |--------------------------------------0---|
F#|--0----0------0------0------0----0----0---|
D |--0----0------0------0------0----0----0---|
B |-----7-----------10------------3------3---|
E |-7----7---7-10-----10---10-3----3---3-3---|

OUTRO
The Sun slowly falls through
d |-------------------------| 
B |--0*---------------------| 
F#|--5----7------8-----12---|  
D |--0*---------------------| 
B |-------------------------| 
E |-------5------7-----10---| 

       * LET RING TILL END!


************************************

| /   slide up
| \   slide down
| h   hammer-on
| p   pull-off
| ~   vibrato
| +   harmonic
| x   Mute note
| b   Bend
| pb  Pre-bend
| br  Bend release
| pbr Pre-bend release
| brb Bend release bend

************************************
Tap to rate this tab
# A B C D E F G H I J K L M N O P Q R S T U V W X Y Z