Song name
# A B C D E F G H I J K L M N O P Q R S T U V W X Y Z

Lucy Rose - First tab

-------------------------------------------------------------------------------
                             First - Lucy Rose
-------------------------------------------------------------------------------
E-mail: ls.voller@hotmail.co.uk

Tuning: Open D, Capo 3rd fret

Intro (Repeat intro for the verse)
D |--------0-----0-0-0-----0-----0-0-0-----0-----0-0-0---0-0-0---0-0-0--------|
A |--------0-----0-0-0-----0-----0-0-0-----0-----0-0-0---0-0-0---0-0-0--------|
F#|--------5-----5-5-5-----5-----5-5-5-----5-----5-5-5---7-7-7---7-7-7--------|
D |--------0-----0-0-0-----0-----0-0-0-----0-----0-0-0---0-0-0---0-0-0--------|
A |--------5-----5-5-5-----5-----5-5-5-----5-----5-5-5---7-7-7---7-7-7--------|
D |----5---5-----5-5-5-5---5-----5-5-5-5---5-----5-5-5-7-7-7-7---7-7-7--------|
    X3

D |--------0-----0-0-0-----0-----0-0-0-----0-----0-0-0---0-0-0---0-0-0--------|
A |--------0-----0-0-0-----0-----0-0-0-----0-----0-0-0---0-0-0---0-0-0--------|
F#|--------0-----0-0-0-----0-----0-0-0-----0-----0-0-0---0-0-0---0-0-0--------|
D |--------0-----0-0-0-----0-----0-0-0-----0-----0-0-0---0-0-0---0-0-0--------|
A |--------0-----0-0-0-----0-----0-0-0-----0-----0-0-0---0-0-0---0-0-0--------|
D |----0---0-----0-0-0-0---0-----0-0-0-0---0-----0-0-0-0-0-0-0-0-0-0-0--------|

Chorus
D |--------0-----0-0-0---0-0-0---0-0-0-----0-----0-0-0---0-0-0---0-0-0--------|
A |--------0-----0-0-0---0-0-0---0-0-0-----0-----0-0-0---0-0-0---0-0-0--------|
F#|--------7-----7-7-7---7-7-7---7-7-7-----8-----8-8-8---8-8-8---8-8-8--------|
D |--------0-----0-0-0---0-0-0---0-0-0-----0-----0-0-0---0-0-0---0-0-0--------|
A |--------7-----7-7-7---7-7-7---7-7-7-----9-----9-9-9---9-9-9---9-9-9--------|
D |----7---7-----7-7-7-7-7-7-7---7-7-7-9---9-----9-9-9-9-9-9-9---9-9-9--------|

D |--------0-----0-0-0-----0-----0-0-0-----0-----0-0-0---0-0-0---0-0-0--------|
A |--------0-----0-0-0-----0-----0-0-0-----0-----0-0-0---0-0-0---0-0-0--------|
F#|--------5-----5-5-5-----5-----5-5-5-----5-----5-5-5---5-5-5---5-5-5--------|
D |--------0-----0-0-0-----0-----0-0-0-----0-----0-0-0---0-0-0---0-0-0--------|
A |--------5-----5-5-5-----5-----5-5-5-----5-----5-5-5---5-5-5---5-5-5--------|
D |----5---5-----5-5-5-5---5-----5-5-5-5---5-----5-5-5-5-5-5-5---5-5-5--------|
    X2

D |--------0-----0-0-0-----0-----0-0-0-----0-----0-0-0---0-0-0---0-0-0--------|
A |--------0-----0-0-0-----0-----0-0-0-----0-----0-0-0---0-0-0---0-0-0--------|
F#|--------0-----0-0-0-----0-----0-0-0-----0-----0-0-0---0-0-0---0-0-0--------|
D |--------0-----0-0-0-----0-----0-0-0-----0-----0-0-0---0-0-0---0-0-0--------|
A |----5---5-----5-5-5-4---4-----4-4-4-2---2-----2-2-2-0-0-0-0---0-0-0--------|
D |---------------------------------------------------------------------------|

D |--------0-----0-0-0---0-0-0---0-0-0-----0-----0-0-0---0-0-0---0-0-0--------|
A |--------0-----0-0-0---0-0-0---0-0-0-----0-----0-0-0---0-0-0---0-0-0--------|
F#|--------5-----5-5-5---5-5-5---5-5-5-----0-----0-0-0---0-0-0---0-0-0--------|
D |--------0-----0-0-0---0-0-0---0-0-0-----0-----0-0-0---0-0-0---0-0-0--------|
A |--------5-----5-5-5---5-5-5---5-5-5-----0-----0-0-0---0-0-0---0-0-0--------|
D |----5---5-----5-5-5-5-5-5-5-5-5-5-5-0---0-----0-0-0-0-0-0-0-0-0-0-0--------|

D |--------0-----0-0-0-----0-----0-0-0-----0-----0-0-0---0-0-0---0-0-0--------|
A |--------0-----0-0-0-----0-----0-0-0-----0-----0-0-0---0-0-0---0-0-0--------|
F#|--------0-----0-0-0-----0-----0-0-0-----0-----0-0-0---0-0-0---0-0-0--------|
D |--------0-----0-0-0-----0-----0-0-0-----0-----0-0-0---0-0-0---0-0-0--------|
A |----5---5-----5-5-5-4---4-----4-4-4-2---2-----2-2-2-0-0-0-0---0-0-0--------|
D |---------------------------------------------------------------------------|

D |--------0-----0-0-0---0-0-0---0-0-0-----0-----0-0-0---0-0-0---0-0-0--------|
A |--------0-----0-0-0---0-0-0---0-0-0-----0-----0-0-0---0-0-0---0-0-0--------|
F#|--------5-----5-5-5---5-5-5---5-5-5-----0-----0-0-0---0-0-0---0-0-0--------|
D |--------0-----0-0-0---0-0-0---0-0-0-----0-----0-0-0---0-0-0---0-0-0--------|
A |--------5-----5-5-5---5-5-5---5-5-5-----0-----0-0-0---0-0-0---0-0-0--------|
D |----5---5-----5-5-5-5-5-5-5-5-5-5-5-0---0-----0-0-0-0-0-0-0-0-0-0-0--------|

D |--------0-----0-0-0---0-0-0---0-0-0-----0-----0-0-0---0-0-0---0-0-0--------|
A |--------0-----0-0-0---0-0-0---0-0-0-----0-----0-0-0---0-0-0---0-0-0--------|
F#|--------5-----5-5-5---5-5-5---5-5-5-----0-----0-0-0---0-0-0---0-0-0--------|
D |--------0-----0-0-0---0-0-0---0-0-0-----0-----0-0-0---0-0-0---0-0-0--------|
A |--------5-----5-5-5---5-5-5---5-5-5-----0-----0-0-0---0-0-0---0-0-0--------|
D |----5---5-----5-5-5-5-5-5-5-5-5-5-5-0---0-----0-0-0-0-0-0-0-0-0-0-0--------|

D |--------0-----0-0-0-----0-----0-0-0-----0-----0-0-0---0-0-0---0-0-0--------|
A |--------0-----0-0-0-----0-----0-0-0-----0-----0-0-0---0-0-0---0-0-0--------|
F#|--------5-----5-5-5-----5-----5-5-5-----5-----5-5-5---5-5-5---5-5-5--------|
D |--------0-----0-0-0-----0-----0-0-0-----0-----0-0-0---0-0-0---0-0-0--------|
A |--------5-----5-5-5-----5-----5-5-5-----5-----5-5-5---5-5-5---5-5-5--------|
D |----5---5-----5-5-5-5---5-----5-5-5-5---5-----5-5-5-5-5-5-5-5-5-5-5--------|

D |----0-0-0-0---0-0-0---0-0-0-0-0-0-0-0-0-0-0---0-0-0---0-0-0-0-0-0-0--------|
A |----0-0-0-0---0-0-0---0-0-0-0-0-0-0-0-0-0-0---0-0-0---0-0-0-0-0-0-0--------|
F#|----0-0-0-0---0-0-0---1-1-1-1-1-1-1-1-0-0-0---0-0-0---3-3-3-3-3-3-3--------|
D |----0-0-0-0---0-0-0---0-0-0-0-0-0-0-0-0-0-0---0-0-0---0-0-0-0-0-0-0--------|
A |----0-0-0-0---0-0-0---2-2-2-2-2-2-2-2-0-0-0---0-0-0---4-4-4-4-4-4-4--------|
D |----0-0-0-0---0-0-0---0-0-0-0-0-0-0-0-0-0-0---0-0-0---0-0-0-0-0-0-0--------|

D |----0-0-0-0---0-0-0---0-0-0-0-0-0-0-0-0-0-0---0-0-0---0-0-0-0-0-0-0--------|
A |----0-0-0-0---0-0-0---0-0-0-0-0-0-0-0-0-0-0---0-0-0---0-0-0-0-0-0-0--------|
F#|----3-0-0-0---0-0-0---1-1-1-1-1-1-1-1-0-0-0---0-0-0---3-3-3-3-3-3-3--------|
D |----0-0-0-0---0-0-0---0-0-0-0-0-0-0-0-0-0-0---0-0-0---0-0-0-0-0-0-0--------|
A |----4-0-0-0---0-0-0---2-2-2-2-2-2-2-2-0-0-0---0-0-0---4-4-4-4-4-4-4--------|
D |----0-0-0-0---0-0-0---0-0-0-0-0-0-0-0-0-0-0---0-0-0---0-0-0-0-0-0-0--------|

Then repeat the whole thing.
Tap to rate this tab
# A B C D E F G H I J K L M N O P Q R S T U V W X Y Z