Song name
# A B C D E F G H I J K L M N O P Q R S T U V W X Y Z

Lucy Rose - Red Face tab

-------------------------------------------------------------------------------
                             RED FACE – Lucy Rose
-------------------------------------------------------------------------------
Tabbed by: Vasu
E-mail:

Let me know in the comments if you have any corrections! This tab is only for the guitar 
that Lucy plays in her live sessions.

Tuning:EADead

Capo on 1st fret

Intro and verses:

d|----------------------------------------------------------------------------------|
a|----0----0----0------0----0-----0----0---0----/0----0---0---0---0---0---0----0----|
e|---3----3----3------3----3-----3----3---3---/5----5---5----5---5---5---5----5-----|
D|----------------------------------------------------------------------------------|
A|------2----------2-----------2---------2---------4--------4-------4-------4-------|
E|-3---------3-----------3----------3--------/5--------5--------5-------5-----------|

…Youve got trouble

d|---7---|
a|--5----|
e|-------|  x 12
D|-0-----|
A|-------|
E|-------|

…searching for you

d|-7----------------------|
a|-5----------------------|
e|--------5--5--5--5------|
D|-0----------------------|
A|--------5--5--5--5------|
E|--------3--3--3--3------|

And you said everything will be the same
But look here everything is gonna change

d|-----------------------------------------|
a|-----------------------------------------|
e|-----------------------------------------|  x2
D|-9----9----9----7---7---7----5--5--5--5--|
A|-9----9----9----7---7---7----5--5--5--5--|
E|-7----7----7----5---5---5----3--3--3--5--|

And you said its what I needed I dont believe it

d|-----------------------------------0------|
a|------------------------0---0---0--0------|
e|-----------------------2---0---3---0------|
D|-9----9----9----7------------------0------|
A|-9----9----9----7-----2---0--------0------|
E|-7----7----7----5------------3-----x------|


Repeat verse and chorus (above)


d|-----------------------|
a|---0----0----0----0----|
e|--2----2----2----2-----|
D|-----------------------|
A|-----------------------|
E|-0----0----0----0------|

Take what you wanted…

d|-----------------------------|
a|-----------------------------|
e|-2-2--0-0--3-3-3-3--5-5-5----|
D|-0-0--0-0--0-0-0-0--0-0-0----| repeat till end of song
A|-2-2-------------------------|
E|------0-0--3-3-3-3--5-5-5----|

d|--------|
a|--------|
e|-2------|
D|-0------| final chord
A|-2------|
E|-x------|


************************************

| /   slide up
| \   slide down
| h   hammer-on
| p   pull-off
| ~   vibrato
| +   harmonic
| x   Mute note
| b   Bend
| pb  Pre-bend
| br  Bend release
| pbr Pre-bend release
| brb Bend release bend

************************************
Tap to rate this tab
# A B C D E F G H I J K L M N O P Q R S T U V W X Y Z