Song name
# A B C D E F G H I J K L M N O P Q R S T U V W X Y Z

Lucy Rose - Night Bus tab

Lucy Rose - Night Bus

Tabbed by: Ben Hughes
Tuning: Standard

The second guitar part to compliment the wonderful main guitar tab already on here:
http://tabs.ultimate-guitar.com/l/lucy_rose/night_bus_tab.htm
I saw people were requesting the second part in the comments so I though I'd submit it.
This is based on the same "Watch, Listen, Tell" video on Youtube.


Intro

E|--7p0-----4p0-------4p0-----0-----------4p0-----2p0-------(0)-(0)----0--|
B|-------5-------5/7-------5-----5-------------5-------5---2---4----5-----|
G|------------------------------------------------------------------------|
D|------------------------------------------------------------------------|
A|------------------------------------------------------------------------|
E|------------------------------------------------------------------------|


E|--7h0-----4p0--------0-------0----------4p0-----2p0-------(0)-(0)-------|
B|-------5-------5--7-----7\5-----5------------5-------5---2---4----7--9--|
G|------------------------------------------------------------------------|
D|------------------------------------------------------------------------|
A|------------------------------------------------------------------------|
E|------------------------------------------------------------------------|



Chorus

He plays very lightly and sparsely, but it goes something like this:

E|--0-----0-----0------0---|
B|----4-----4-----4----5---|
G|-------------------------|
D|-------------------------|
A|-------------------------|
E|-------------------------|



Interlude

E|-----0-------|
B|-------0-----|
G|---6-----(6)-|   X3
D|-7-----------|
A|-------------|
E|-------------|

E|--0--|
B|--0--|
G|--6--|
D|--7--|
A|-----|
E|-----|



Bridge

In this part he is playing full barre chords in different positions in relation to Lucy.
They mostly just repeat but the guy does do some fancy flourishes and hammer-ons that I
couldn't work out:

    E    E5      C#7
E|------------|---4---|
B|--9*--------|---5---|
G|--9----9*---|---4---|
D|--9----9----|---6---|
A|--7----7----|---4---|
E|------------|-------|

(Accent the notes that have an * after them)

Happy Playing!
Tap to rate this tab
 
# A B C D E F G H I J K L M N O P Q R S T U V W X Y Z