Song name
# A B C D E F G H I J K L M N O P Q R S T U V W X Y Z

Lucy Rose - Night Bus tab

TUNING: DADGAD , CAPO ON 2

INTRO:

 1   D                 D                D                D
 D |--0---0---0---0-|--0---0---0---0-|--0---0---0---0-|--0---0---0---0-|
 A |--0---0---0---0-|--0---0---0---0-|--0---0---0---0-|--0---0---0---0-|
 G |----------------|----------------|----------------|----------------|
 D |----------------|----------------|----------------|----------------| x1
 A |5---5---5---5---|5---5---5---5---|5---5---5---5---|5---5---5---5---|
 D |----------------|----------------|0---0---0---0---|0---0---0---0---|

 2   D                 A                Bm               G
 D |7p0---4---0---2-|--4p0-0---0---0-|4p0---2---0---0-|--0---0---0---0-|
 A |--0---0---0---0-|--0---0---0---0-|--0---0---0---0-|--0---0---0---0-|
 G |----------------|----------------|----------------|5---7---8-------|
 D |----------------|----------------|----------------|----------------| 
 A |5---5---5---5---|0---0---0---0---|2---2---2---2---|----------------|
 D |----------------|----------------|----------------|5---5---5---5---|

 3   D                 A                Bm               G
 D |7p0---4---0---2-|--4p0-0---0---0-|4p0---2---0---0-|--0---0---0---0-|
 A |--0---0---0---0-|--0---0---0---0-|--0---0---0---0-|--0---0---0---0-|
 G |----------------|----------------|----------------|5---------------|
 D |----------------|----------------|----------------|----------------| 
 A |5---5---5---5---|0---0---0---0---|2---2---2---2---|----------------|
 D |----------------|----------------|----------------|5---5---5---5---|

VERSE 1

 4   D                 A                Bm               G
 D |--0---0---0---0-|--0---0---0---0-|--0---0---0---0-|--0---0---0---0-|
 A |--0---0---0---0-|--0---0---0---0-|--0---0---0---0-|--0---0---0---0-|
 G |----------------|----------------|----------------|----------------|
 D |----------------|----------------|----------------|----------------| x4 
 A |5---5---5---5---|0---0---0---0---|2---2---2---2---|----------------|
 D |----------------|----------------|----------------|5---5---5---5---|
When you see trouble in her eyes
And you've noticed but only realized
It's not fading how ever hard you try
'cause it's built in her for her life

 7b   G                
 D |--0---0---0---0-|
 A |--0---0---0---0-|
 G |----------------|
 D |----------------| x1 
 A |----------------|
 D |5---5---5---5---|

BRIDGE:
8   D                  Em               Bm               Bm
 D |--0---0---0---0-|--0---0---0---0-|--0---0---0---0-|--0---0---0---0-|
 A |--0---0---0---0-|--0---0---0---0-|--0---0---0---0-|--0---0---0---0-|
 G |----------------|----------------|----------------|----------------|
 D |----------------|----------------|----------------|----------------|  
 A |5---5---5---5---|7---7---7---7---|2---2---2---2---|2---2---2---2---|
 D |----------------|----------------|----------------|----------------|
I'm not alone

9    D                 Em               Bm               A
 D |--0---0---0---0-|--0---0---0---0-|--0---0---0---0-|--0---0---0---0-|
 A |--0---0---0---0-|--0---0---0---0-|--0---0---0---0-|--0---0---0---0-|
 G |----------------|----------------|----------------|----------------|
 D |----------------|----------------|----------------|----------------|  
 A |5---5---5---5---|7---7---7---7---|2---2---2---2---|0---0---0---0---|
 D |----------------|----------------|----------------|----------------|
You said I'm not alone...

10   G                 G                G                G
 D |0---------------|----------------|----------------|0~--------------|
 A |0---------0-----|----------0-----|----------0-----|0~--------------|
 G |5---5-----------|----5-----------|----5-----------|5~--------------|
 D |x-------------5-|--------------5-|--------------5-|x---------------| 
 A |x-5-----5-------|--5-----5-------|--5-----5-------|5~--------------|
 D |5-----5-----5---|5-----5-----5---|5-----5-----5---|5~--------------|


VERSE 2
 11   D                A                Bm               G
 D |--0---0---0---0-|--0---0---0---0-|--0---0---0---0-|--0---0---0---0-|
 A |--0---0---0---0-|--0---0---0---0-|--0---0---0---0-|--0---0---0---0-|
 G |----------------|----------------|----------------|----------------|
 D |----------------|----------------|----------------|----------------| x4 
 A |5---5---5---5---|0---0---0---0---|2---2---2---2---|----------------|
 D |----------------|----------------|----------------|5---5---5---5---|
She takes the night bus home
She's not faced by the darkness in her soul
And you barely catch a glimpse of her
'cause she's wrapped tightly hiding in her clothes

 14b  G                
 D |--0---0---0---0-|
 A |--0---0---0---0-|
 G |----------------|
 D |----------------| x1 
 A |----------------|
 D |5---5---5---5---|

BRIDGE:
15   D                 Em               Bm               Bm
 D |--0---0---0---0-|--0---0---0---0-|--0---0---0---0-|--0---0---0---0-|
 A |--0---0---0---0-|--0---0---0---0-|--0---0---0---0-|--0---0---0---0-|
 G |----------------|----------------|----------------|----------------|
 D |----------------|----------------|----------------|----------------| x2 
 A |5---5---5---5---|7---7---7---7---|2---2---2---2---|2---2---2---2---|
 D |----------------|----------------|----------------|----------------|
I'm not alone
She said I'm not alone

17   D                 Em               Bm               A
 D |--0---0---0---0-|--0---0---0---0-|--0---0---0---0-|--0---0---0---0-|
 A |--0---0---0---0-|--0---0---0---0-|--0---0---0---0-|--0---0---0---0-|
 G |----------------|----------------|----------------|----------------|
 D |----------------|----------------|----------------|----------------|  
 A |5---5---5---5---|7---7---7---7---|2---2---2---2---|0---0---0---0---|
 D |----------------|----------------|----------------|----------------|
You said I'm not alone...

18   G                 G                G                G
 D |0---------------|----------------|----------------|0~--------------|
 A |0---------0-----|----------0-----|----------0-----|0~--------------|
 G |5---5-----------|----5---------5-|----5-----------|5~--------------|
 D |x-------------5-|----------------|--------------5-|x---------------|
 A |x-5-----5-------|--5-----5-------|--5-----5-------|5~--------------|
 D |5-----5-----5---|5-----5-----5---|5-----5-----5---|5~--------------|

REFRAIN:
19   D                 D                 D               D
 D |--4---0---0---0-|--0---0---0---0-|--0---0---0---0-|--0---0---0---0-|
 A |--0---0---0---0-|--0---0---0---0-|--0---0---0---0-|--0---0---0---0-|
 G |----------------|----------------|----------------|----------------|
 D |----------------|----------------|----------------|----------------|  
 A |5---5---5---5---|5---5---5---5---|5---5---5---5---|5---5---5---5---|
 D |0~--------------|0~--------------|0~--------------|0~--------------|
Strangers and they're walking my way...

20   Bm                Bm               Bm               Bm
 D |--0---0---0---0-|--0---0---0---0-|--0---0---0---0-|--0---0---0---0-|
 A |--0---0---0---0-|--0---0---0---0-|--0---0---0---0-|--0---0---0---0-|
 G |----------------|----------------|----------------|---------------*|
 D |----------------|----------------|----------------|---------------*|
 A |2---2---2---5---|2---2---2---2---|2---2---2---2---|2---2---2---2---|
 D |0~--------------|0~--------------|0~--------------|0~--------------|
And talking to myself

21   D                 D                 D               D
 D |--4---0---0---0-|--0---0---0---0-|--2---0---0---0-|--0---0---0---0-|
 A |--0---0---0---0-|--0---0---0---0-|--0---0---0---0-|--0---0---0---0-|
 G |----------------|----------------|----------------|----------------|
 D |----------------|----------------|----------------|----------------|  
 A |5---5---5---5---|5---5---5---5---|5---5---5---5---|5---5---5---5---|
 D |0~--------------|0~--------------|0~--------------|0~--------------|
The strangers and they're walking my way...

22   Bm                Bm               Bm               Bm
 D |--0---0---0---0-|--0---0---0---0-|--0---0---0---0-|--0---0---0---0-||
 A |--0---0---0---0-|--0---0---0---0-|--0---0---0---0-|--0---0---0---0-||
 G |----------------|----------------|----------------|----------------||
 D |----------------|----------------|----------------|----------------||
 A |2---2---2---2---|2---2---2---2---|2---2---2---2---|2---2---2---2---||
 D |0~--------------|0~--------------|0~--------------|0~--------------||
And I'm talking to myself

23   D                 D                 D               D
 D |--0h4-4---4---4-|--0h2-2---2---2-|--0---0---0---0-|--0---0---0---0-|
 A |--0---0---0---0-|--0---0---0---0-|--0---0---0---0-|--0h2-2-0h4---4-|
 G |----------------|----------------|----------------|----------------|
 D |----------------|----------------|----------------|----------------|  
 A |5---5---5---5---|5---5---5---5---|5---5---5---5---|5---5---5---5---|
 D |0~--------------|0~--------------|0~--------------|0~--------------|
The strangers and they're walking my way...

24   Bm                Bm               Bm               Bm
 D |--0h4-4---4---4-|--0h2-2---2---2-|--0---0---0---0-|--0---0---0---0-|
 A |--0---0---0---0-|--0---0---0---0-|--0---0---0---0-|--0h2-2-0h4---4-|
 G |----------------|----------------|----------------|----------------|
 D |----------------|----------------|----------------|----------------|
 A |2---2---2---2---|2---2---2---2---|2---2---2---2---|2---2---2---2---|
 D |0~--------------|0~--------------|0~--------------|0~--------------|
And I'm talking to myself

25   D                 D                 D               D
 D |--0h4-4---4---4-|--0h2-2---2---2-|--0---0---0---0-|--0---0---0---0-|
 A |--0---0---0---0-|--0---0---0---0-|--0---0---0---0-|--0h2-2-0h4---4-|
 G |----------------|----------------|----------------|----------------|
 D |----------------|----------------|----------------|----------------|  
 A |5---5---5---5---|5---5---5---5---|5---5---5---5---|5---5---5---5---|
 D |0~--------------|0~--------------|0~--------------|0~--------------|
The strangers and they're walking my way...

 26  G                
 D |--0---0---0---0-|
 A |--0---0---0---0-|
 G |----------------|
 D |----------------| x4 
 A |----------------|
 D |5---5---5---5---|

BRIDGE:
27   D                 A                Bm               G
 D |7p0---4---0---2-|--4p0-0---0---0-|4p0---2---0---0-|--0---0---0---0-|
 A |--0---0---0---0-|--0---0---0---0-|--0---0---0---0-|--0---0---0---0-|
 G |----------------|----------------|----------------|5---7---8-------|
 D |----------------|----------------|----------------|----------------| x3
 A |5---5---5---5---|0---0---0---0---|2---2---2---2---|----------------|
 D |0---------------|----------------|----------------|5---5---5---5---|
She said I'm not alone
She said I'm not alone
She said I'm not alone

30   D                 Em               Bm               A
 D |--0---0---0---0-|--0---0---0---0-|--0---0---0---0-|--0---0---0---0-|
 A |--0---0---0---0-|--0---0---0---0-|--0---0---0---0-|--0---0---0---0-|
 G |----------------|----------------|----------------|----------------|
 D |----------------|----------------|----------------|----------------|  
 A |5---5---5---5---|7---7---7---7---|2---2---2---2---|0---0---0---0---|
 D |----------------|----------------|----------------|----------------|
No, I'm not alone

31   G                 G                G                G
 D |0---------------|----------------|----------------|    |--0~--------|
 A |0---------0-----|----------0-----|----------0-----|    |--0~--------|
 G |5---5-----------|----5-----------|----5-----------|    |--5~--------|
 D |x-------------5-|--------------5-|--------------5-|x2  |--x---------|
 A |x-5-----5-------|--5-----5-------|--5-----5-------|    |--5~--------|
 D |5-----5-----5---|5-----5-----5---|5-----5-----5---|    |--5~--------|
Tap to rate this tab
 
# A B C D E F G H I J K L M N O P Q R S T U V W X Y Z