Song name
# A B C D E F G H I J K L M N O P Q R S T U V W X Y Z

Lucy Rose - Asheville tab

Lucy Rose - Asheville
Tuning: Standard
This is my first attempt at tabbing, if you're struggling with timing or anything 
else use the ETown video below as reference (I did)


http://www.youtube.com/watch?v=YRFwwcEhb2E


Verse (Bjorn)
E|---------------------------------------------|
B|------11-13------11-15-13---------11-13-(11)-|
G|10-12---------12------------10-12------------| x 2
D|---------------------------------------------|
A|---------------------------------------------|
E|---------------------------------------------|

Pre chorus (Lucy)
E|---------------------------------------------|
B|6-6-6-4-4-6-6-6-8-8--------------------------|
G|---------------------------------------------| x 3
D|---------------------------------------------|
A|---------------------------------------------|
E|---------------------------------------------|

E|---------------------------------------------|
B|11-11-11-9-9-11-11-11-13-13------------------|
G|---------------------------------------------|
D|---------------------------------------------|
A|---------------------------------------------|
E|---------------------------------------------|

Chorus (Lucy)
E|-----------------------------------------------------|
B|-----------------------------------------------------|
G|-----------------------------------------------------| x 4
D|-----------------------------------------------------|
A|6-6-6-6-6--4-4-4-4-4--10-10-10-10-10--15-15-15-15-15-|
E|6-6-6-6-6--4-4-4-4-4--10-10-10-10-10--15-15-15-15-15-|

Verse
Pre Chorus
Chorus

Bridge (Bjorn)
E|--------------------------------------------|
B|--------------------------------------------|
G|----------------------------------7---------| x 2
D|---8-8----10-10-10---------8-8------10p8-10-|
A|10-----10-10-10-10-(x3)-10-----10-----------|
E|--------------------------------------------|

E|-----------------------------------------------|
B|-----------------------------------------------|
G|-----------------------------------------------|
D|-----------------------------------------------|
A|10-10-10-8-8-10-10-10-13-13--------------------|
E|-----------------------------------------------|

Outro
E|13-13-13-11-15---------------------------------|
B|-----------------------------------------------|
G|-----------------------------------------------| x 16
D|-----------------------------------------------|
A|-----------------------------------------------|
E|-----------------------------------------------|
Tap to rate this tab
# A B C D E F G H I J K L M N O P Q R S T U V W X Y Z