Song name
# A B C D E F G H I J K L M N O P Q R S T U V W X Y Z

Lucy Spraggan - Rockcliffe Bay tab

Hey guys its Censored coming back with a fresh tab from the one and only Lucy spraggan. 
This is a song she did with Ont'sofa.com
Tabs 100% any questions or comments shoot me a message at andydowdy123@hotmail.com


Capo on 4th Fret
Normal tuning


Main verse.
                                               Strum
E------------------------------------------------2--------|
B--0-3---0--------1-1-0-------1-0---0------------1--------|
G----------2------------0-----0-0------0---------2--------|
D------------0------------0---------------2------0--------|
A-----------------2-2-2-------0-0-------------------------|
E--3------------------------------------------------------|

chorus is just the basic shapes strummed. if you dont know what those are:

   G  ?    ?    D variant
e--3--0----0----2-----|
b--3--2p0--1----1-----|
g--0--0----0----2-----|
d--0--0----2----0-----|
a--2--2---------------|
e--3--x---------------|

Thanks for "tuning in."
Tap to rate this tab
# A B C D E F G H I J K L M N O P Q R S T U V W X Y Z