Song name
# A B C D E F G H I J K L M N O P Q R S T U V W X Y Z

Lucybell - Ojos Del Silencio tab

Lucybell - Ojos del Silencio - Lumina

INTRO:

e|--2-2-2-2-2-2-2---2---2-2-2-0-0-0--|
b|--3-3-3-3-3-3-3---3---3-3-3-3-3-3--|
g|--2-2-2-2-2-2-2---2---2-2-2-2-2-2--|
d|--0-0-0-0-0-0-0---0---0-0-0-0-0-0--|
a|-----------------------------------|
e|-----------------------------------|

Aaaah aaah... Es el sol...

e|-------------------------------------------------------------------|
b|-------------------------------------------------------------------|
g|-----------------------2-2-2-2-2-2-2-2-2/7-7-7-7-7-7-7-------------|
d|-------------------------------------------------------------------|
a|-------------------------------------------------------------------|
e|-------------------------------------------------------------------|

Que hay en ti...

e|-------------------------------------------------------------------|
b|-------------------------------------------------------------------|
g|-----------------------2-2-2-2-2-2-2-2-2/7-7-7-7-7-7-7-------------|
d|-------------------------------------------------------------------|
a|-------------------------------------------------------------------|
e|-------------------------------------------------------------------|

Hojas en el viento...

e|-------------------------------------------------------------------|
b|-------------------------------------------------------------------|
g|------------------7-7-7-7/6-6-6-6/4-4-4-4-4/6-2--------------------|
d|-------------------------------------------------------------------|
a|-------------------------------------------------------------------|
e|-------------------------------------------------------------------|
Tap to rate this tab
 
# A B C D E F G H I J K L M N O P Q R S T U V W X Y Z