Song name
# A B C D E F G H I J K L M N O P Q R S T U V W X Y Z

Ludacris - Act A Fool tab

hope its all good, please rate :D


e---------------------------------------------------------------------------|
B---------------------------------------------------------------------------|
G---------------------------------------------------------------------------|
D--9--9--9--10--9--10--9--10--9--10--12--12--12--10--10--10--10--10--10--10-|
A--7--7--7---8--7---8--7---8--7---8--10--10--10---8---8---8---8---8---8---8-|
E---------------------------------------------------------------------------|


e-------------------------------------------------------------------------|
B-------------------------------------------------------------------------|
G-------------------------------------------------------------------------|
D--10--10--10-------------------------------------------------------------|
A---8---8---8-------------------------------------------------------------|
E-------------------------------------------------------------------------|

repeat all
Tap to rate this tab
# A B C D E F G H I J K L M N O P Q R S T U V W X Y Z